Guitar Tabs
song title    band name

Join Us Today!

Don't strum alone...
be a part of the largest online Christian music community. Browse thousands of guitar tabs and chat w/ musicians like yourself.


It's Free!

This tab has been rated a 5.00 out of 5 for accuracy. (2 votes)Sorry, but you must be logged in to rate this tab.
Click here to log-in, or you can click here to register.
(Registration is free)

All songs owned by corresponding publishing company. If you make copies of any song on this website, be sure to report your usage to CCLI.
Submitted by: jolek14

Sanctus Real
Inspiration

 2002 Birdwing Music ASCAP
Tabbed by James
Written by Rohman/Hammitt

INTRO/VERSE

CHRIS
e---------------------------------
B---------------------------------
G----1-1----1---1------1-1-2-1----
D-4-4---2-2---2---2-0-0--------4-2
A---------------------------------
D---------------------------------

PRECHORUS

CHRIS
e---------------------------------------
B---------------------------------------
G---2---2----4-----2---2---2-4-4-4-4-2-2
D-----0---2-----0--------0---2-2-2-2-0-0
A-4------------------4------------------
D---------------------------------------

cHORUS

BOTH
e--------------------------------------------------------------
B--------------------------------------------------------------
G--------------------------------------------------------------  x2
D-7-7--7-9-9--9-0-0-2-0-0--6-0-6--7-7--7-9-9--9-0-0-2-0-0-0-0-6 
A-7-7--7-9-9--9-0-0-2-0-0--7-0-7--7-7--7-9-9--9-0-0-2-0-0-0-0-7
D-7-7--7-9-9--9-0-0-2-0-0--6-0-6--7-7--7-9-9--9-0-0-2-0-0-0-0-6

e-------------------
B-------------------
G----------1-2-1-4-1
D-7-7-7--2----------
A-4-4-5-------------
D-------------------

SOLO

MATT
e---------------------------------------------------
B---------------------------------------------------
G-----------------------------------9--7-6-7-6-4-2-2
D-4-4-4---------2-2-2----------------------------0-0
A-4-4-4-4h5p4p0-2-2-2--4h5p4p0------7--5-4s5s4-2-0-0
D-4-4-4---------2-2-2-----------0-0--------------0-0

CHRIS
e---------------4-4------4-5-----5--10p9p7---9p7----------------
B-7-7---5-7------------5-----5h7----------10----10p9--10p9p7---7
G----4h6-----------4h6---------------------------------------9--
D---------------------------------------------------------------
A---------------------------------------------------------------
D---------------------------------------------------------------

BRIDGE

CHRIS
e---------------------------------------5-4-5-4-5-4-7-4
B------------------------------------------------------
G------------------------------------------------------
D-4--4--4-4--2--2--2-2--9-9-9-9-7-7-7-7----------------
A-4--4--4-4--2--2--2-2--9-9-9-9-7-7-7-7----------------
D-4--4--4-4--2--2--2-2--9-9-9-9-7-7-7-7----------------

MATT
e------------------------------------------------------
B---------------------------------------3-2-3-2-3-2-5-2
G------------------------------------------------------
D-4--4--4-4--2--2--2-2--9-9-9-9-7-7-7-7----------------
A-4--4--4-4--2--2--2-2--9-9-9-9-7-7-7-7----------------
D-4--4--4-4--2--2--2-2--9-9-9-9-7-7-7-7----------------

CHRIS
e-5---------4----------2-------0-------3-------2----------------0---------0-
B-----------------------------------------------------------0---------0-----
G---------------------------------------------------------2---2-----2---2---
D-------------------------------------------------------2---------2---------
A---------------------------------------------------------------------------
D---------------------------------------------------------------------------

MATT
e---------------------------------------------------------------------------
B---------------------------------------------------------------------------
G---------------------------------------------------------------------------
D-4--4--4-4--2--2--2-2--9-9-9-9-7-7-7-7-5-5-5-5-4-4-4-4-2-------------------
A-4--4--4-4--2--2--2-2--9-9-9-9-7-7-7-7-5-5-5-5-4-4-4-4-2--(let chord ring)-
D-4--4--4-4--2--2--2-2--9-9-9-9-7-7-7-7-5-5-5-5-4-4-4-4-2-------------------

OUTRO
Palm mute the chorus and the ending just plays 
the last chords of the chorus a couple extra times.

Comments about this tab

sanctusfan14 - 2005-04-11

are you sure the intro isnt a bass part?


JohnM - 2005-04-25

Erm.. no. It's a palm-muted, clean electric guitar.


jesuslova - 2005-05-16

actually the intro is a lot easier than that.
it's played w/ a flanger and a delay timed at 8th notes.
you just need to play each note like, once, and let the delay hangle the rest.

same effect for the whole verse and prechorus.


undertone - 2006-03-22

I just recently picked up SR's first CD - another great song - John M or jolek14 - super tab - I don't play the intro in that position - I play it starting on the A string at the 9th fret - like a lot of other SR songs, this one sounds like it is tuned down a half step - the intro is best played with "chickin-pickin" style ala songs by Chet Atkins, Steve Morse (Dixie Dregs), and Eric Johnson


chjolo - 2008-03-25

I think you should mention it's a half step down, too. :) Great tab.


Add a comment/correction

Complimentary Christian Ringtones
Dadamobile and CGR have teamed up to bring your favorite Christian artists right to your phone. Sign up today and get 10 complementary ringtones!
Tab Country
Did you know CGR has a sister site w/ country guitar tabs? Well we do! Its called Tab Country. It has a great archive with a lot of country tabs.
Rockin Tabs
Are you looking for a site that has rock guitar tabs? Then Rockintabs.com is the place for you. It is a budding site with many rock guitar tabs. Submit your tab today.
Tab Gallery
Tab Gallery has a compilation of christian, rock, and country tabs all in one place. Come visit us.