Guitar Tabs
song title    band name

Join Us Today!

Don't strum alone...
be a part of the largest online Christian music community. Browse thousands of guitar tabs and chat w/ musicians like yourself.


It's Free!

This tab has been rated a 0.00 out of 5 for accuracy. (1 vote)Sorry, but you must be logged in to rate this tab.
Click here to log-in, or you can click here to register.
(Registration is free)

All songs owned by corresponding publishing company. If you make copies of any song on this website, be sure to report your usage to CCLI.
Submitted by: treybowen12

Robbie Seay Band: "You Are Good"
Hey yall this is my first tab but i still think its bretty good.
Verse:
--3-----3-----3-----2-----x2-----0-----2-----x2
--3-----3-----3-----3-----x2-----1-----3-----x2
--0-----0-----0-----2-----x2-----2-----2-----x2
--0-----0-----2-----0-----x2-----2-----0-----x2
--2-----2-----3-----0-----x2-----0-----0-----x2
--3-----0-----x-----x-----x2-----0-----x-----x2
 
Chorus:
--3-----2-----x3-----1-----3
--3-----3-----x3-----1-----1
--0-----2-----x3-----2-----0
--2-----0-----x3-----3-----2
--3-----0-----x3-----x-----3
--x-----x-----x3-----x-----0
Thats pretty much it.  It sounds like the real thing.  
Feel free to make a comment about it because this is my first tab 
and i have never seen this song preformed.

Comments about this tab

No comments/corrections found. Add your own

Complimentary Christian Ringtones
Dadamobile and CGR have teamed up to bring your favorite Christian artists right to your phone. Sign up today and get 10 complementary ringtones!
Tab Country
Did you know CGR has a sister site w/ country guitar tabs? Well we do! Its called Tab Country. It has a great archive with a lot of country tabs.
Rockin Tabs
Are you looking for a site that has rock guitar tabs? Then Rockintabs.com is the place for you. It is a budding site with many rock guitar tabs. Submit your tab today.
Tab Gallery
Tab Gallery has a compilation of christian, rock, and country tabs all in one place. Come visit us.