Guitar Tabs
song title    band name

Join Us Today!

Don't strum alone...
be a part of the largest online Christian music community. Browse thousands of guitar tabs and chat w/ musicians like yourself.


It's Free!

This tab has been rated a 5.00 out of 5 for accuracy. (1 vote)Sorry, but you must be logged in to rate this tab.
Click here to log-in, or you can click here to register.
(Registration is free)

All songs owned by corresponding publishing company. If you make copies of any song on this website, be sure to report your usage to CCLI.
Submitted by: gleno

Album: All That I Need
Transcribed by: Gleno
Email: chuckyrulz@hotmail.com

Song Structure:
Intro
Intro2/Chorus x2
Verse 1 x4
Refrain x4
Pre Chorus
Chorus x2
Refrain
Verse 2/Chorus x4
Pre Chorus
Chorus x4
Intrumental (Bass)
Bridge x2
Bridge2 x2
Refrain (no guitar) x4
Refrain2 x4
Chorus x2
Ending

This is a pretty rough tab which should just be good enough for u to be able to
play it in church or something of that nature. Couldn't pin down the bass for
the instrumental or the licks over the top of the chorus the second time round,
please feel free to correct it!

------------------------------------------------------------------------------
------------------------------------------------------------------------------
------------------------------------------------------------------------------
------------------------------------------------------------------------------
-2-5-7-7-0-2-5-7-7--2-5-7-7-0-2-5-7/8\7-7-------------------------------------
------------------------------------------------------------------------------
 Intro                                                                        

------------------------------------------------------------------------------
------------------------------------------------------------------------------
-4-7-9-9---4-7-9-9---4-7-9-9---4-7-9-10-9-9-----------------------------------
-4-7-9-9---4-7-9-9---4-7-9-9---4-7-9-10-9-9-----------------------------------
-2-5-7-7-0-2-5-7-7---2-5-7-7-0-2-5-7/-8\7-7-----------------------------------
------------------------------------------------------------------------------
 Chorus                                                                       

------------------------------------------------------------------------------
------------------------------------------------------------------------------
-4-------------------4-7-9-9---4-7-9-10-9-9-----------------------------------
-4-------------------4-7-9-9---4-7-9-10-9-9-----------------------------------
-2-------------------2-5-7-7-0-2-5-7/-8\7-7-----------------------------------
------------------------------------------------------------------------------
 (let ring)......     Verse 1                                                 

------------------------------------------------------------------------------
------------------------------------------------------------------------------
------------------------------------------------------------------------------
-4-----6---2-2-2-2------------------------------------------------------------
-4-----6---2-2-2-2------------------------------------------------------------
-2-----4---0-0-0-0------------------------------------------------------------
 Pre Chorus                                                                   

------------------------------------------------------------------------------
------------------------------------------------------------------------------
------------------------------------------------------------------------------
-4----------------------------------------------------------------------------
-4----------------------------------------------------------------------------
-2----------------------------------------------------------------------------
 (let ring).....   (Refrain)                                                  

------------------------------------------------------------------------------
------------------------------------------------------------------------------
------------------------------------------------------------------------------
--------------------------------------------7-------4-------------------------
--------------------------------------------7-------4-------------------------
--------------------------------------------5-------2-------------------------
 Coz i dunno wat u've come 2 do i've come 2 praise  him     (Ending)          

Comments about this tab

sanctusfan17 - 2006-01-14

good tab! the little riff after the main one is
e
B
G
D
A 5 8 7 7
E 5 7


Add a comment/correction

Complimentary Christian Ringtones
Dadamobile and CGR have teamed up to bring your favorite Christian artists right to your phone. Sign up today and get 10 complementary ringtones!
Tab Country
Did you know CGR has a sister site w/ country guitar tabs? Well we do! Its called Tab Country. It has a great archive with a lot of country tabs.
Rockin Tabs
Are you looking for a site that has rock guitar tabs? Then Rockintabs.com is the place for you. It is a budding site with many rock guitar tabs. Submit your tab today.
Tab Gallery
Tab Gallery has a compilation of christian, rock, and country tabs all in one place. Come visit us.