Guitar Tabs
song title    band name

Join Us Today!

Don't strum alone...
be a part of the largest online Christian music community. Browse thousands of guitar tabs and chat w/ musicians like yourself.


It's Free!

This tab has been rated a 5.00 out of 5 for accuracy. (1 vote)Sorry, but you must be logged in to rate this tab.
Click here to log-in, or you can click here to register.
(Registration is free)

All songs owned by corresponding publishing company. If you make copies of any song on this website, be sure to report your usage to CCLI.
Submitted by: scheller

Blue Mix
Five Iron Frenzy
Album: Five Iron Frenzy 2: Electric Boogaloo
C 2001 5 Minute Walk Records

Transcribed by scheller   sonnyschell@hotmail.com
I've tabbed out the whole song for both guitars.

 Intro
  B5   F#5 D5           B5                A5     E5
|-------------------------|---------------------------------|
|-------------------------|---------------------------------|
|-4-7--/11-11-12-11-9-7-9-|---------------------------------|
|-------------------------|-----9---9-9-9-11-7-7-7-7-7-7--7-|
|-2-5---/9--9-10--9-7-5-7-|---------------------------------|
|-------------------------|-----7---7-7-7--9-5-5-5-5-5-5--5-|
|
|-------------------------|---------------------------------|
|-------------------------|---------------------------------|
|-------------------------|---------------------------------|
|-----------7--7--7-7-x---|---------------------------------|
|-9-9\---4--5--5--5-5-x-9-|-----9-9---9-9--7-7-7-2-2-2-2/---|
|-7-7\---2--------------7-|-----7-7---7-7--5-5-5-0-0-0-0/---|


  B5 G5 D5          E5             F#5 A5
|---------------------|------------------------------|
|---------------------|------------------------------|
|-4--7-11-12-11-9-7-9-|-----4-4-4-4--6---------------|
|---------------------|----------------7-7-7-7-7-7-7-|
|-2--5--9-10--9-7-5-7-|-----2-2-2-2--4---------------|
|---------------------|----------------5-5-5-5-5-5-5-|
|
|---------------------|------------------------------|
|---------------------|------------------------------|
|---------------------|------------------------------|
|-------7--7--7-7-7-9-|-----9-9-9-9-11---------------|
|-9\-5--5--5--5-5-5-7-|-----7-7-7-7--9-7-7-7-7-7-7-7-|
|-7\-3----------------|----------------5-5-5-5-5-5-5-|


  B5 G5 D5          B5                A5     E5
|---------------------|---------------------------------|
|---------------------|---------------------------------|
|-4--7-11-12-11-9-7-9-|---------------------------------|
|---------------------|-----9---9-9-9-11-7-7-7-7-7-7--7-|
|-2--5--9-10--9-7-5-7-|---------------------------------|
|---------------------|-----7---7-7-7--9-5-5-5-5-5-5--5-|
|
|---------------------|---------------------------------|
|---------------------|---------------------------------|
|---------------------|---------------------------------|
|-------7--7--7-7-7---|---------------------------------|
|-9\-5--5--5--5-5-5-9-|-----9-9---9-9--7-7-7-2-2-2-2/---|
|-7\-3--------------7-|-----7-7---7-7--5-5-5-0-0-0-0/---|


  B5 G5 D5          E5             F#5 A5
|---------------------|------------------------------|
|---------------------|------------------------------|
|-4--7-11-12-11-9-7-9-|-----4-4-4-4--6---------------|
|---------------------|----------------7-7-7-7-7-7-7-|
|-2--5--9-10--9-7-5-7-|-----2-2-2-2--4---------------|
|---------------------|----------------5-5-5-5-5-5-5-|
|
|---------------------|------------------------------|
|---------------------|------------------------------|
|---------------------|------------------------------|
|-------7--7--7-7-7-9-|-----9-9-9-9-11---------------|
|-9\-5--5--5--5-5-5-7-|-----7-7-7-7--9-7-7-7-7-7-7-7-|
|-7\-3----------------|----------------5-5-5-5-5-5-5-|


 Verses
      Bm    F#m      E       Bm            Bm    F#m      E       Bm
  PM----|    PM|     PM------|             PM|    PM|     PM------|      7x
|----------------------------------||------------------------------------||
|----------------------------------||o----------------------------------o||
|---------2------1-1-----------(4)-||----------2------1-1-----------(4)--||
|-----4-4----4-4-----2-0-5-4-2-----||------4-4----4-4-----2-0-5-4-2------||
|-2-2---------------------------2--||o-------------------------------2--o||
|----------------------------------||------------------------------------||
|
|                                                                        7x
|-----7----------------------------||------7-----------------------------||
|-----7-----10-------9-------7--7--||o-----7-----10-------9-------7--7--o||
|-----7-----11-------9-------7--7--||------7-----11-------9-------7--7---||
|-----9-----11-------9-------9--9--||------9-----11-------9-------9--9---||
|-----9------9-------7-------9--9--||o-----9------9-------7-------9--9--o||
|----------------------------7-----||-----------------------------7------||


 Pre-Chorus
  A5    C#5     F#5      E5    E5       A5       C#5         F#5     D/G Em/G
|-------------|-----------------------|--------------------|----------------||
|-------------|-----------------------|--------------------|----------------||
|-------------|-----------------------|----------6-6-6-6-6-|----------------||
|-7-7---6-6---|-4-4------------/9-9-9-|-7-7--7-7-6-6-6-6-6-|-4-4------4--2--||
|-7-7---4-4---|-4-4--4---2-2-2-/7-7-7-|-7-7--7-7-4-4-4-4-4-|-4-4--4---x--x--||
|-5-5---------|-2-2--2-2-0-0-0--------|-5-5--5-5-----------|-2-2--2-2-3--3--||


 Chorus
  D5  A5    E5    G5    D5  A5    E5          F#5
|---------------------|-------------------------------|
|---------------------|-------------------------------|
|---------------------|-----------6b7r(6)-4-3---------|
|-7-7-------9-9-9-----|-7-7---------------------------|
|-5-5-7-7-7-7-7-7-5-5-|-5-5-7-7-7---------------------|
|-----5-5-5-------3-3-|-----5-5-5---------------------|
|
|---------------------|-------------------------------|
|---------------------|-------------------------------|
|---------------------|-------------------------------|
|-7-7-------9-9-9-----|-7-7-------9----9--9-9---------|
|-5-5-7-7-7-7-7-7-5-5-|-5-5-7-7-7-7----7--7-7--4--4-4-|
|-----5-5-5-------3-3-|-----5-5-5--------------2--2-2-|
    

  D5     A5    E5     G5      E5    G5 Bbm F#/Bb E/Bb
|---------------------------|-----------------------||
|---------------------------|-----------------------||
|---------------------------|-----------------------||
|-/7-7-7-------/9-9-9-------|-/9-9-9----------------||
|-/5-5-5-7-7-7-/7-7-7-5-5-5-|-/7-7-7-5-4-4-9--7-----||
|--------5-5-5--------3-3-3-|--------3-6-6-6--6-----||
|
|---------------------------|-----------------------||
|---------------------------|-----------------------||
|---------------------------|-----------------------||
|-/7-7-7-------/9-9-9-------|-/9-9-9----------------||
|-/5-5-5-7-7-7-/7-7-7-5-5-5-|-/7-7-7-5-4-4-9--7-----||
|--------5-5-5--------3-3-3-|--------3-6-6-6--6-----||


[Play Intro Verse and Chorus again]


 Bridge
|--------------|----------|-------------------|---------------|
|--------------|----------|-------------------|---------------|
|-6----7\------|-4--------|------6h7-9-7--6\4-|-4\2-2---------|
|--------------|----------|-------------------|---------------|
|--------------|----------|-------------------|---------------|
|--------------|----------|-------------------|---------------|
|
|--------------|----------|-------------------|---------------|
|--------------|----------|-------------------|---------------|
|--------------|----------|-------------------|---------------|
|--------------|----------|-------------------|--------/12----|
|--------------|----------|-------------------|---------------|
|-5----7\------|-3--------|--5---------7\-----|-3-------------|


|-------------------|----------|-------------------|-------------|
|-------------------|----------|-------------------|-------------|
|------6h7-9-7--6\2-|-2--------|------6h7-9-7--6\4-|-4\2-2/------|
|-------------------|----------|-------------------|-------------|
|-------------------|----------|-------------------|-------------|
|-------------------|----------|-------------------|-------------|
|
|-------------------|----------|-------------------|-------------|
|-------------------|----------|-------------------|-------------|
|-------------------|----------|-------------------|-------------|
|-------------------|----------|-------------------|-------/12---|
|-------------------|----------|-------------------|-------------|
|--5---------7\-----|-3--------|--5---------7\-----|-3-----------|


|-------------|------------|-----------|--------|
|-------------|------------|-----------|--------|
|---9---9/11--|-7--------6-|-6/7----7--|-7/9----|
|-------------|------------|-----------|--------|
|-------------|------------|-----------|--------|
|-------------|------------|-----------|--------|
|
|-------------|------------|-----------|--------|
|-------------|------------|-----------|--------|
|-------------|------------|-----------|--------|
|-/14\--------|------------|-----------|--------|
|-------------|------------|-----------|--------|
|----------2--|-3------5---|-7------7--|-9------|


|----------------------|----------|--------------------|---------------|
|-------7h8-10--8--7\3-|-3--------|------7h8-10--8--7--|-3/5-3---------|
|-(9)\-----------------|----------|--------------------|--------2/4-2--|
|----------------------|----------|--------------------|---------------|
|----------------------|----------|--------------------|---------------|
|----------------------|----------|--------------------|---------------|
|
|----------------------|----------|--------------------|---------------|
|----------------------|----------|--------------------|---------------|
|----------------------|----------|--------------------|---------------|
|----------------------|----------|--------------------|---------------|
|----------------------|----------|--------------------|---------------|
|-10-----------12------|-8--------|-10----------12-----|-8------3------|


|-------------------|----------|
|----7h8-10--8--7\3-|-3--------|
|-------------------|----------|
|-------------------|----------|
|-------------------|----------|
|-------------------|----------|
|
|-------------------|----------|
|-------------------|----------|
|-------------------|----------|
|-------------------|----------|
|-------------------|----------|
|-10--------12------|-8--------|


                     PM------------|
|------------------|---------------------------------|
|----7h8-10--8--7--|---------------------------------|
|------------------|-9-9-9-9-9-9-9-9-9-9-9-9-9-9-9-9-|
|------------------|---------------------------------|
|------------------|---------------------------------|
|------------------|---------------------------------|
|
|                    PM------------|
|------------------|---------------------------------|
|------------------|---------------------------------|
|------------------|---------------------------------|
|------------------|---------------------------------|
|------------------|---------------------------------|
|-10--------12-----|-8-8-8-8-8-8-8-8-8-8-8-8-8-8-8-8-|


 Breakdown
      PM|     PM|     PM------|           PM|     PM|     PM------|
|-----------------------------------|-----------------------------------|
|-----------------------------------|-----------------------------------|
|-(4)-----2-2-----1-1-----------(4)-|---------2-2-----1-1-----------(4)-|
|-----4-4-----4-4-----2-0-5-4-2-----|-----4-4-----4-4-----2-0-5-4-2-----|
|--2-----------------------------2--|--------------------------------2--|
|-----------------------------------|-----------------------------------|

      PM|     PM|     PM------|           PM|     PM|                ~~~~
|-----------------------------------|-------------------------------------|
|-----------------------------------|-------------------------------------|
|---------2-2-----1-1-----------(4)-|---------2-2------6b7r(6)----4--3----|
|-----4-4-----4-4-----2-0-5-4-2-----|-----4-4-----4-4---------------------|
|--------------------------------2--|-------------------------------------|
|-----------------------------------|-------------------------------------|
|
|                                                                    ~~~~
|-----------------------------------|-------------------------------------|
|-----------------------------------|-----------------14b15r(14)-12-11----|
|-----------------------------------|-------------------------------------|
|-----------------------------------|-------------------------------------|
|-----------------------------------|-------------------------------------|
|-----------------------------------|-------------------------------------|


[Play Chorus again]


 Outro
  B5   F#5 D5           B5                   A5      E5
|-------------------------|---------------------------------|
|-------------------------|---------------------------------|
|-4-7--/11-11-12-11-9-7-9-|---------------------------------|
|-------------------------|-----9---9-9-9-11-7-7-7-7-7-7--7-|
|-2-5---/9--9-10--9-7-5-7-|---------------------------------|
|-------------------------|-----7---7-7-7--9-5-5-5-5-5-5--5-|
|
|-------------------------|---------------------------------|
|-------------------------|---------------------------------|
|-------------------------|---------------------------------|
|-----------7--7--7-7-7---|---------------------------------|
|-9-9\---4--5--5--5-5-5-9-|-----9-9---9-9--7-7-7-2-2-2-2/---|
|-7-7\---2--------------7-|-----7-7---7-7--5-5-5-0-0-0-0/---|


  B5     G5 D5          E5                 F#5
|-------------------------|------------------------------*|
|-------------------------|------------------------------*|
|-4------7-11-12-11-9-7-9-|-----4-4-4-4-4--6--6--6--6\---*|
|-------------------------|------------------------------*|
|-2------5--9-10--9-7-5-7-|-----2-2-2-2-2--4--4--4--4\---*|
|-------------------------|------------------------------*|
|
|-------------------------|------------------------------*|
|-------------------------|------------------------------*|
|-------------------------|------------------------------*|
|-----------7--7--7-7-7-9-|-----9-9-9-9-9-11-11-11-11\---*|
|-9-(9)\-5--5--5--5-5-5-7-|-----7-7-7-7-7--9--9--9--9\---*|
|-7-(7)\-3----------------|------------------------------*|


Generated using Power Tab Editor by Brad Larsen
http://www.power-tab.net

Comments about this tab

No comments/corrections found. Add your own

Complimentary Christian Ringtones
Dadamobile and CGR have teamed up to bring your favorite Christian artists right to your phone. Sign up today and get 10 complementary ringtones!
Tab Country
Did you know CGR has a sister site w/ country guitar tabs? Well we do! Its called Tab Country. It has a great archive with a lot of country tabs.
Rockin Tabs
Are you looking for a site that has rock guitar tabs? Then Rockintabs.com is the place for you. It is a budding site with many rock guitar tabs. Submit your tab today.
Tab Gallery
Tab Gallery has a compilation of christian, rock, and country tabs all in one place. Come visit us.