Guitar Tabs
song title    band name

Join Us Today!

Don't strum alone...
be a part of the largest online Christian music community. Browse thousands of guitar tabs and chat w/ musicians like yourself.


It's Free!

This tab has been rated a 4.00 out of 5 for accuracy. (7 votes)Sorry, but you must be logged in to rate this tab.
Click here to log-in, or you can click here to register.
(Registration is free)

All songs owned by corresponding publishing company. If you make copies of any song on this website, be sure to report your usage to CCLI.
Submitted by: ducksfanatic91

Band: Underoath
Song: When The Sun Sleeps
Album: They’re Only Chasing Safety
Tabbed by: Tyler (ducksfanatic91@yahoo.com)

INTRO GUITAR 1
E|---------------------------------------------------------------
B|-----------------------------------------------0--------0------
G|------0-----------0------------0-------0--------0--------0-----
D|---9----9----9---9--9---9---9------7--7-7----5---5---5----5----
A|-7--7----7-9--9-------9---7--7---5--5----5--3-3---3-3-3----3---
D|---------------------------------------------------------------

INTRO GUITAR 2
E|---------------------------------------------------
B|-8-8-8---7-7-7---/8-8-8-7-8-10--/8-8-8-7-8-10-15---
G|---------------------------------------------------
D|---------------------------------------------------
A|---------------------------------------------------
D|---------------------------------------------------

VERSE GUITAR 1
E|---------------------------------------------------
B|---------------------------------------------------
G|-9-9-9--11---11---9-9-9--5-5-5--5-5-5-5----------------
D|-9-9-9--11---11---9-9-9--5-5-5--5-5-5-5----------------
A|-7-7-7--9----9----7-7-7--7-7-7--3-3-3-3----------------
D|---------------------------------------------------

VERSE GUITAR 2
E|---------------------------------------------------
B|-/8-8-8-7-8-10--/8-7-3----------------------------- x2
G|---------------------------------------------------
D|---------------------------------------------------
A|---------------------------------------------------
D|---------------------------------------------------

CHORUS BOTH GUITARS
E|-0-0-0-0-0--0-0-0-0-0--------------------------------
B|-0-0-0-0-0--0-0-0-0-0--------------------------------
G|-2-2-2-2-2--5-5-5-5-5--------------------------------
D|-2-2-2-2-2--5-5-5-5-5--2-2-2-2-2---0-0-0-0-0-0-------
A|-0-0-0-0-0--3-3-3-3-3--2-2-2-2-2---0-0-0-0-0-0-------
D|-----------------------2-2-2-2-2---0-0-0-0-0-0-------

AFTER CHORUS
E|-----------------------------------------------------
B|--------------------------4-4--5---------------------
G|--------------------------4-4--5---------------------
D|--------------------------2-2--3---------------------
A|-7-7-9-9-9-10-10-10-12-------------------------------
D|-0-0-0-0-0-0--0--0--0--------------------------------

VERSE GUITAR 1
E|---------------------------------------------------
B|---------------------------------------------------
G|-9-9-9--11---11---9-9-9--5-5-5--5-5-5-5----------------
D|-9-9-9--11---11---9-9-9--5-5-5--5-5-5-5----------------
A|-7-7-7--9----9----7-7-7--7-7-7--3-3-3-3----------------
D|---------------------------------------------------

VERSE GUITAR 2
E|---------------------------------------------------
B|-/8-8-8-7-8-10--/8-7-3----------------------------- x2
G|---------------------------------------------------
D|---------------------------------------------------
A|---------------------------------------------------
D|---------------------------------------------------

CHORUS BOTH GUITARS
E|-0-0-0-0-0--0-0-0-0-0--------------------------------
B|-0-0-0-0-0--0-0-0-0-0--------------------------------
G|-2-2-2-2-2--5-5-5-5-5--------------------------------
D|-2-2-2-2-2--5-5-5-5-5--2-2-2-2-2---0-0-0-0-0-0-------
A|-0-0-0-0-0--3-3-3-3-3--2-2-2-2-2---0-0-0-0-0-0-------
D|-----------------------2-2-2-2-2---0-0-0-0-0-0-------

BRIDGE

( JUST PICK THE CHORUS )
( THEN PALM MUTE THE ENDING )


CHORUS BOTH GUITARS
E|-0-0-0-0-0--0-0-0-0-0--------------------------------
B|-0-0-0-0-0--0-0-0-0-0--------------------------------
G|-2-2-2-2-2--5-5-5-5-5--------------------------------
D|-2-2-2-2-2--5-5-5-5-5--2-2-2-2-2---0-0-0-0-0-0-------
A|-0-0-0-0-0--3-3-3-3-3--2-2-2-2-2---0-0-0-0-0-0-------
D|-----------------------2-2-2-2-2---0-0-0-0-0-0-------


ENDING
E|----------------------------------------------------
B|---0-------0------0-----0---3P0---3-----------------
G|-----0-------0------0-----0-------0-----------------
D|----------------------------------0-----------------
A|-0-----3--------------------------3-----------------
D|---------------2-------0----------------------------

Comments about this tab

arkana - 2005-03-17



iNTRO GUITAR 1
E|---------------------------------------------------------------
B|-----------------------------------------------0--------0------
G|------0-----------0------------0-------0--------0--------0-----
D|---9----9----7---7--9---9---9------7--7-7----5---5---5----5----
A|-7--7----7-9--9-------9---7--7---5--5----5--3-3---3-3-3----3---
D|---------------------------------------------------------------
^^^^^^
something like that... just trying to make the point that the part thats pointed is diferent

VERSE GUITAR 1
E|---------------------------------------------------
B|---------------------------------------------------
G|-9-9-9--9----9---9-9-9--5-5-5--5-5-5-5----------------
D|-9-9-9--9----9---9-9-9--5-5-5--5-5-5-5----------------
A|-7-7-7--9----9----7-7-7--7-7-7--3-3-3-3---------------


ay1138 - 2005-06-30

this tab is really good, awesome job


TheChaad14 - 2005-07-08

Try this. I think this is right. Underoath is awsome.God Bless

tuning d A D G B E

Intro/1st guitar:
|-------------------------------------------------------------|
|-------------------------------------------------------------| cont.
|--------0--------------0--------------0--------------0-------|
|----9-----9------7---7---7---7----9-----9------7---7---7---7-|
|-7----7-----7-9----9-------9---7----7-----7-5----5-------5---|
|-------------------------------------------------------------|

|-------------------------------------------------------------|
|--------0--------------0--------------0--------------0-------| x2
|-------------------------------------------------------------|
|----5-----5------5---5---5---5----5-----5------5---5---5---5-|
|-3----3-----3-3----3-------3---3----3-----3-3----3-------3---|
|-------------------------------------------------------------|

2nd guitar: (listen you'll hear it.)
|----------------------||------------------------||------------------------|
|----------------------||------------------------||----------------------15|
|-12-12-12----11-11-11-||------12----11h12p11-14-||----12----11h12p11-14---|
|----------------------||-12------12-------------||-12----12---------------|
|----------------------||------------------------||------------------------|
|----------------------||------------------------||------------------------|

Verse/1st guitar:
|---------------------------------------------------------|
|---------------------------------------------------------| x2
|-9-9-9991111111111111111119-9-9997-----5-----------------|
|-x-x-xxx-x-x-x-x-x-x-x-x-xx-x-xxxx-----x-----------------|
|-7-7-777-9-9-9-9-9-9-9-9-97-7-7775(x9)-3(x30)------------|
|---------------------------------------------------------|

2nd guitar:
|-------------------------------------------------------------------------|
|-------------------------------------------------------------------------|
|------12----11h12p11-14-----12--11-------------------12-12-12-11-11-11---|
|-12------12-------------------------12----------12---------------------12|
|-------------------------------------------9-10--------------------------|
|-------------------------------------------------------------------------|

1st guitar:
|-------------------------------------------------------------------|
|-------------------------------------------------------------------| x2
|-99999999999999999999999777777777755555555555555555555555555555555-|
|-99999999999999999999999777777777755555555555555555555555555555555-|
|-77777779999999997777777555555555533333333333333333333333333333333-|
|-------------------------------------------------------------------|
.................................................................

2nd guitar:
|--------------------------------------------------------------------------|
|--------------------------------------------------------------------------|
|-9-9-9991111111111111111119-9-99977777777755555555555555555555555555555555|
|-x-x-xxx-x-x-x-x-x-x-x-x-xx-x-xxxxxxxxxxxxxxxxxxxxxxxxxxxxxxxxxxxxxxxxxxxx|
|-7-7-777-9-9-9-9-9-9-9-9-97-7-77755555555533333333333333333333333333333333|
|--------------------------------------------------------------------------|

Keyboards: (transcribed for guitar.)
|---------------------------------------------| |--------------------|
|---------------------------------------------| x2|-13-12-10-1210b---8-| x2
|---------------------------------------------| |--------------------|
|-12-12-12-12-12-12-12-12-10-10-10-10-9-9-9-9-| |--------------------|
|---------------------------------------------| |--------------------|
|---------------------------------------------| |--------------------|

Chorus/Both guitars:
|------------------------------------------------------------------|
|------------------------------------------------------------------| x2
|-2-222222222222225-55555555555555---------------------------------|
|-2-222222222222225-555555555555552-222222222222220-00000000000000-|
|-0-000000000000003-333333333333332-222222222222220-00000000000000-|
|---------------------------------2-222222222222220-00000000000000-|

Keyboards: ( transcribed for guitar.)
|------------------------------------------------|
|------------------------------------------------| cont.
|-12-12-12-12-12-12-12-1216-16-16-16-16-17-17-17-|
|------------------------------------------------|
|------------------------------------------------|
|------------------------------------------------|

|------------------------------------------------|
|-17-17-17-17-17-17-17-1715-15-15-15-15-15-15-15-| x2
|------------------------------------------------|
|------------------------------------------------|
|------------------------------------------------|
|------------------------------------------------|

Pre Verse/1st guitar:
|----------------------------------------------------------------------|
|----------------------------------------------------------------------|
|----------------------------------------------------------------------|
|----------------------------------------------------7-x-x-7-x-x-7-x-7-|
|-x-x-7-x-x-7-x-x-9-x-x-9-x-x-9-x-9--x-x-7-x-x-7-x-x-------------------|
|----------------------------------------------------------------------|

|------------------------|
|------------------------|
|-----4------------4-----|
|-------5------------5---|
|-3-------3----3-------3-|
|------------------------|

1st guitar:
|-----------------------------------------------------------------|
|-----------------------------------------------------------------| cont.
|-----------------------------------------------------------------|
|-------------------------------------------------7-x-x-7-x-7-x-7-|
|-x-x-7-x-x-7-x-x-9-x-x-9-x-9-x-9-x-x-7-x-x-7-x-x-----------------|
|-----------------------------------------------------------------|

2nd guitar:
|---------------------------------------------------------------|
|---------------------------------------------------------------|
|-9-9---9-9---9-9---9-9---9---9---9-9---9-9---7-7---7-7---7---7-|
|-9-9---9-9---9-9---9-9---9---9---9-9---9-9---7-7---7-7---7---7-|
|-7-7---7-7---9-9---9-9---9---9---7-7---7-7---5-5---5-5---5---5-|
|---------------------------------------------------------------|

1st guitar:
|------------------------|
|------------------------|
|-----4------------4-----|
|-------5------------5---|
|-3-------3----3-------3-|
|------------------------|

Verse/Both guitars:
|---------------------------------------------------------|
|---------------------------------------------------------| x2
|-9-9-9991111111111111111119-9-9997-----5-----------------|
|-x-x-xxx-x-x-x-x-x-x-x-x-xx-x-xxxx-----x-----------------|
|-7-7-777-9-9-9-9-9-9-9-9-97-7-7775(x9)-3(x30)------------|
|---------------------------------------------------------|

Keyboards: ( transcribed for guitar.)
|--------------------------------------| |--------------------|
|--------------------------------------| cont.|-15-13-12-1312---10-| x2
|-12-12-12-1212-12-12-12-12-12-12-11---| |--------------------|
|-----------------------------------12-| |--------------------|
|--------------------------------------| |--------------------| (x2)
|--------------------------------------| |--------------------|

Chorus/Both guitars:
|------------------------------------------------------------------|
|------------------------------------------------------------------| x2
|-2-222222222222225-55555555555555---------------------------------|
|-2-222222222222225-555555555555552-222222222222220-00000000000000-|
|-0-000000000000003-333333333333332-222222222222220-00000000000000-|
|---------------------------------2-222222222222220-00000000000000-|

Keyboards: ( transcribed for guitar.)
|------------------------------------------------|
|------------------------------------------------| cont.
|-12-12-12-12-12-12-12-1217-17-17-17-17-17-17-17-|
|------------------------------------------------|
|------------------------------------------------|
|------------------------------------------------|

|------------------------------------------------|
|-17-17-17-17-17-17-17-1715-15-15-15-15-15-15-15-| x2
|------------------------------------------------|
|------------------------------------------------|
|------------------------------------------------|
|------------------------------------------------|

Bridge/1st guitar:
|---------------------------------------------------------|
|--------0-----3--------0h3p0--------0-----3--------0h3p0-| cont.
|----0-----0------0---0----------0-----0------0---0-------|
|------0-----0------0--------------0-----0------0---------|
|-0---------------------------3---------------------------|
|---------------------------------------------------------|

|---------------------------------------------------------|
|--------0-----3--------0h3p0--------0-----3--------0h3p0-| x2
|----0-----0------0---0----------0-----0------0---0-------|
|------0-----0------0--------------0-----0------0---------|
|---------------------------------------------------------|
|-2---------------------------0---------------------------|

|---------------------------------------------------------|
|--------0-----3--------0h3p0--------0-----3--------0h3p0-| cont.
|----0-----0------0---0----------0-----0------0---0-------|
|------0-----0------0--------------0-----0------0---------|
|-0---------------------------3---------------------------|
|---------------------------------------------------------|

|---------------------------------------------------------|
|--------0-----3--------0h3p0--------0-----3--------0h3p0-|
|----0-----0------0---0----------0-----0------0---0-------|
|------0-----0------0--------------0-----0------0---------|
|---------------------------------------------------------|
|-2---------------------------0---------------------------|

2nd guitar:
|----------------------------------------------------------------|
|----------------------------------------------------------------| x2
|-22222222222222225555555555555555-------------------------------|
|-22222222222222225555555555555555222222222222222200000000000000-|
|-00000000000000003333333333333333222222222222222200000000000000-|
|---------------------------------222222222222222200000000000000-|
..............................................................

1st guitar:
|---------------------------------------------------------|
|--------0-----3--------0h3p0--------0-----3--------0h3p0-| cont.
|----0-----0------0---0----------0-----0------0---0-------|
|------0-----0------0--------------0-----0------0---------|
|-0---------------------------3---------------------------|
|---------------------------------------------------------|

|----------------------------------|
|----------------------------------|
|----------------------------------|
|-22222222222222220000000000000000-|
|-22222222222222220000000000000000-|
|-22222222222222220000000000000000-|
................................

Keyboards: (transcribed for guitar.)
|------------------------------------------------|
|------------------------13-13-13-13-13-13-13-13-| cont.
|-12-12-12-12-12-12-12-12------------------------|
|------------------------------------------------|
|------------------------------------------------|
|------------------------------------------------|

|------------------------------------------------|
|-12-12-12-12-12-12-12-1210-10-10-10-10-10-10-10-| cont.
|------------------------------------------------|
|------------------------------------------------|
|------------------------------------------------|
|------------------------------------------------|

|------------------------------------------------|
|------------------------13-13-13-13-13-13-13-13-| cont.
|-12-12-12-12-12-12-12-12------------------------|
|------------------------------------------------|
|------------------------------------------------|
|------------------------------------------------|

|------------------------------------------------|
|-12-12-12-12-12-13-13-1315-15-15-15-15-15-15-15-| cont.
|------------------------------------------------|
|------------------------------------------------|
|------------------------------------------------|
|------------------------------------------------|

Chorus/Both guitars:
|------------------------------------------------------------------|
|------------------------------------------------------------------| x2
|-2-222222222222225-55555555555555---------------------------------|
|-2-222222222222225-555555555555552-222222222222220-00000000000000-|
|-0-000000000000003-333333333333332-222222222222220-00000000000000-|
|---------------------------------2-222222222222220-00000000000000-|

Keyboards: ( transcribed for guitar.)
|------------------------------------------------|
|------------------------------------------------| cont.
|-12-12-12-12-12-12-12-1217-17-17-17-17-17-17-17-|
|------------------------------------------------|
|------------------------------------------------|
|------------------------------------------------|

|------------------------------------------------|
|-17-17-17-17-17-17-17-1715-15-15-15-15-15-15-15-| x2
|------------------------------------------------|
|------------------------------------------------|
|------------------------------------------------|
|------------------------------------------------|

Chorus/Both guitars:
|------------------------------------------------------------------|
|------------------------------------------------------------------| x2
|-2-222222222222225-55555555555555---------------------------------|
|-2-222222222222225-555555555555552-222222222222220-00000000000000-|
|-0-000000000000003-333333333333332-222222222222220-00000000000000-|
|---------------------------------2-222222222222220-00000000000000-|

Keyboards: ( transcribed for guitar.)
|------------------------------------------------|
|------------------------13-13-13-13-13-13-13-13-| cont.
|-12-12-12-12-12-12-12-12------------------------|
|------------------------------------------------|
|------------------------------------------------|
|------------------------------------------------|

|------------------------------------------------|
|-12-12-12-12-12-12-12-1210-10-10-10-10-10-10-10-| x2
|------------------------------------------------|
|------------------------------------------------|
|------------------------------------------------|
|------------------------------------------------|

Breakdown/1st guitar:
|------------------------------------------------------|
|------------------------------------------------------| cont.
|-2-2--2-2-2--2-2-2--2-2-2--2-5-5--5-5-5--5-5-5--5-5-5-|
|-2-2--2-2-2--2-2-2--2-2-2--2-5-5--5-5-5--5-5-5--5-5-5-|
|-0-0--0-0-0--0-0-0--0-0-0--0-3-3--3-3-3--3-3-3--3-3-3-|
|------------------------------------------------------|

|--------------------------------------------------------|
|--------------------------------------------------------| cont.
|-5------------------------------------------------------|
|-5-2-2--2-2-2--2-2-2--2-2-2--2-0-0--0-0-0--0-0-0--0-0-0-|
|-3-2-2--2-2-2--2-2-2--2-2-2--2-0-0--0-0-0--0-0-0--0-0-0-|
|---2-2--2-2-2--2-2-2--2-2-2--2-0-0--0-0-0--0-0-0--0-0-0-|

|--------------------------------------------------------|
|--------------------------------------------------------| cont.
|---2-2--2-2-2--2-2-2--2-2-2--2-5-5--5-5-5--5-5-5--5-5-5-|
|-0-2-2--2-2-2--2-2-2--2-2-2--2-5-5--5-5-5--5-5-5--5-5-5-|
|-0-0-0--0-0-0--0-0-0--0-0-0--0-3-3--3-3-3--3-3-3--3-3-3-|
|-0------------------------------------------------------|

|--------------------------------------------------------|
|--------------------------------------------------------| cont.
|-5------------------------------------------------------|
|-5-2-2--2-2-2--2-2-2--2-2-2--2-0-0--0-0-0--0-0-0--0-0-0-|
|-3-2-2--2-2-2--2-2-2--2-2-2--2-0-0--0-0-0--0-0-0--0-0-0-|
|---2-2--2-2-2--2-2-2--2-2-2--2-0-0--0-0-0--0-0-0--0-0-0-|

2nd guitar:
|------------------------------------------------------|
|------------------------------------------------------| cont.
|-2-2--2-2-2--2-2-2--2-2-2--2-2-2--2-2-2--2-2-2--2-2-2-|
|-2-2--2-2-2--2-2-2--2-2-2--2-2-2--2-2-2--2-2-2--2-2-2-|
|-0-0--0-0-0--0-0-0--0-0-0--0-0-0--0-0-0--0-0-0--0-0-0-|
|------------------------------------------------------|

|--------------------------------------------------------|
|--------------------------------------------------------| x3
|-2-2-2--2-2-2--2-2-2--2-2-2--2-2-2--2-2-2--2-2-2--2-2-2-|
|-2-2-2--2-2-2--2-2-2--2-2-2--2-2-2--2-2-2--2-2-2--2-2-2-|
|-0-0-0--0-0-0--0-0-0--0-0-0--0-0-0--0-0-0--0-0-0--0-0-0-|
|--------------------------------------------------------|

Keyboards: ( transcribed for guitar.)
|----| |----------------------------|
|----| x23|----------------------------| cont.
|-12-| |-14-11-11-11-11-11-11-11-11-|
|----| |----------------------------|
|----| |----------------------------|
|----| |----------------------------|

|-------------------------------------------------|
|-------------------------------------------------| cont.
|-12-12-12-12-12-12-12-14-12-12-12-12-12-12-12-14-|
|-------------------------------------------------|
|-------------------------------------------------|
|-------------------------------------------------|

|-------------------------------------------------|
|-------------------------------------------------|
|-12-12-12-12-12-12-12-14-11-11-11-11-11-11-11-11-|
|-------------------------------------------------|
|-------------------------------------------------|
|-------------------------------------------------|

Outro:
|----------------------------------------------------|
|----0----------0----------0----------0----3-0-----3-|
|-------0----------0----------0----------0------0--0-|
|-------0----------0----------0--------------------0-|
|-0----------3-------------------------------------3-|
|-----------------------2----------0-----------------|


JF77 - 2005-08-02

DUDE, why didn't you just submit a whole different tab instead of putting yours in the corrections of this guys?


underoathrocks - 2005-08-20

good question


†never†alone† - 2006-01-05

seriously, dude. just submit ur own."If you have a massive correction to a song (like a different key, or tabs instead of chords), please submit it as a new song."


musicroxs_24-7 - 2006-05-11

the CD album is called" the changing times",
"they're only chasing safety" came after


panhead777 - 2007-03-28

underoath is sick good tab it sounds pretty close

keep on rockin


Add a comment/correction

Complimentary Christian Ringtones
Dadamobile and CGR have teamed up to bring your favorite Christian artists right to your phone. Sign up today and get 10 complementary ringtones!
Tab Country
Did you know CGR has a sister site w/ country guitar tabs? Well we do! Its called Tab Country. It has a great archive with a lot of country tabs.
Rockin Tabs
Are you looking for a site that has rock guitar tabs? Then Rockintabs.com is the place for you. It is a budding site with many rock guitar tabs. Submit your tab today.
Tab Gallery
Tab Gallery has a compilation of christian, rock, and country tabs all in one place. Come visit us.