Guitar Tabs
song title    band name

Join Us Today!

Don't strum alone...
be a part of the largest online Christian music community. Browse thousands of guitar tabs and chat w/ musicians like yourself.


It's Free!

This tab has been rated a 4.67 out of 5 for accuracy. (3 votes)Sorry, but you must be logged in to rate this tab.
Click here to log-in, or you can click here to register.
(Registration is free)

All songs owned by corresponding publishing company. If you make copies of any song on this website, be sure to report your usage to CCLI.
Submitted by: stinkey diver

SONG: The Last	
		ARTIST:	Underoath
		TRANSCRIBED: Ryan Freeman
		DATE: March 21
-----------------------------------------------------------------------
/ slide up
\ slide down
b bend
h hammer on
p pull off
*harmonics
x dead note
()remaining sound
. palm mute
' tremelo pick
^ Scratch the string

Tuning: Drop D Tuning (D,a,d,g,b,e)

D|-----------------------------------------------------------------
a|-5p0-5p0-5p0-5p0-5p0-5p0-5p0-5p0-8p0-8p0-8p0-8p0-7p0-7p0-7p0-7p0- x2
d|-----------------------------------------------------------------
g|-----------------------------------------------------------------
b|-----------------------------------------------------------------
e|-----------------------------------------------------------------

(use picking hand to bar 1st fret)
D|-------------------------------------------------
a|-5p0-5p0-5p0-5p0-8p0-8p0-8p0-8p0-7p0-7p0-7p0-7p0-
d|-------------------------------------------------
g|-------------------------------------------------
b|-------------------------------------------------
e|-------------------------------------------------

D|----------------------------------------------
a|-5p0-5p0-5p0-5p0-7p0-8p0-7p0-10p0-8p0-7p0-5p0-
d|-----------------------------------------------------------------
g|-----------------------------------------------------------------
b|-----------------------------------------------------------------
e|-----------------------------------------------------------------

D|-----------------------------------------------------------------
a|-5p0-5p0-5p0-5p0-5p0-5p0-5p0-5p0-8p0-8p0-8p0-8p0-7p0-7p0-7p0-7p0- x2
d|-----------------------------------------------------------------
g|-----------------------------------------------------------------
b|-----------------------------------------------------------------
e|-----------------------------------------------------------------

(use picking hand to bar 1st fret)
D|-------------------------------------------------
a|-5p0-5p0-5p0-5p0-8p0-8p0-8p0-8p0-7p0-7p0-7p0-7p0-
d|-------------------------------------------------
g|-------------------------------------------------
b|-------------------------------------------------
e|-------------------------------------------------

D|----------------------------------
a|-5p0-5p0-5p0-5p0-8p0-7p0-10p0-8p0-
d|----------------------------------
g|----------------------------------
b|----------------------------------
e|----------------------------------

D|-----------------------------------------
a|-5-5-5-5-8-5-5-5-5-8-5-5-5-5-8-5-5-5-5-8-
d|-----------------------------------------
g|-----------------------------------------
b|-----------------------------------------
e|-----------------------------------------

D|--------------------------------------------
a|-3-3-3-3-7-3-3-3-3-7--7-7-7-7-10-7-7-7-7-10-
d|--------------------------------------------
g|--------------------------------------------
b|--------------------------------------------
e|--------------------------------------------

D|-0-0-0-0-0-0-0-0-4-4-4-4-3-3-1-1-
a|-0-0-0-0-0-0-0-0-4-4-4-4-3-3-1-1-
d|---------------------------------
g|---------------------------------
b|---------------------------------
e|---------------------------------

D|-----------------------------------------
a|-5-5-5-5-8-5-5-5-5-8-5-5-5-5-8-5-5-5-5-8-
d|-----------------------------------------
g|-----------------------------------------
b|-----------------------------------------
e|-----------------------------------------

D|--------------------------------------------
a|-3-3-3-3-7-3-3-3-3-7--7-7-7-7-10-7-7-7-7-10-
d|--------------------------------------------
g|--------------------------------------------
b|--------------------------------------------
e|--------------------------------------------

D|-0-0-0-0-0-8-5-0-8-4-0-8-3-
a|-----------8-5-0-8-4-0-8-3-
d|---------------------------
g|---------------------------
b|---------------------------
e|---------------------------

D|-----------------------------------------------------------------
a|-----------------------------------------------------------------
d|-3-3-3-3-3-3-3-3-5-5-5-5-5-5-5-5-7-7-7-7-7-7-7-7-8-8-8-8-8-8-8-8-
g|-----------------------------------------------------------------
b|-----------------------------------------------------------------
e|-----------------------------------------------------------------

D|-8-8-8-8-8-8-8-8-10-10-10-10-10-10-10-10-
a|-8-8-8-8-8-8-8-8-10-10-10-10-10-10-10-10-
d|-----------------------------------------
g|-----------------------------------------
b|-----------------------------------------
e|-----------------------------------------

D|-----------------------------------------------------------------
a|-----------------------------------------------------------------
d|-3-3-3-3-3-3-3-3-5-5-5-5-5-5-5-5-7-7-7-7-7-7-7-7-8-8-8-8-8-8-8-8-
g|-----------------------------------------------------------------
b|-----------------------------------------------------------------
e|----------------------------------------------------------------- 

D|-8-8-8-8-8-8-8-8-10-10-10-10-10-10-10-10-
a|-8-8-8-8-8-8-8-8-10-10-10-10-10-10-10-10-
d|-----------------------------------------
g|-----------------------------------------
b|-----------------------------------------
e|-----------------------------------------

Here it is the solo (its not exactly 100% right, but its close)
D|------------------------------------------------------------------
a|------------------------------------------------------------------
d|-5h7-5h7--5h7-7/10-10-9h10/12-12-10h12/14-14----------------------
g|---------------------------------------------14-14-14-12h14/16-16-
b|------------------------------------------------------------------
e|------------------------------------------------------------------

D|-------------------------------------------------------------------
a|-------------------------------------------------------------------
d|-------------------------------------------------------------------
g|-14h16----------------------------------------------------15-15h17-
b|-------17-------------------------------------15-14-15h14----------
e|----------17-15-14-15-13-12-13-13-12h13-12-12----------------------

D|-------------------------------------------------------------------
a|----13h15h13-15/17h15----------------------------------------------
d|-15-------------------15-------------------------------------------
g|-------------------------15-15-13h15-------------------------------
b|-------------------------------------13-12h13----------------------
e|----------------------------------------------12-17-15-13-15-13-12-

D|---------------------------------------------------
a|---------------------------------------------------
d|---------------------------------------------------
g|---------------------------------------------------
b|----------------15-14-15-14-12-14-14-12h14h12------
e|-13-12h13h12-13-------------------------------17~~-


D|-0-0-5h0-0-0-0-0-5h7-7-0-0-
a|-0-0-5h0-0-0-0-0-5h7-7-0-0-
d|---------------------------
g|---------------------------
b|---------------------------
e|---------------------------

D|-0-0-0-0-0-0-5h7-7-0-0-0-0-0-0-------------
a|-0-0-0-0-0-0-5h7-7-0-0-0-0-0-0-5h7---------
d|-----------------------------------5h7-----
g|---------------------------------------5h7-
b|-------------------------------------------
e|-------------------------------------------


D|-0-2-3-0-3-5-6-0-5-6-8-0-7-8-10-
a|-0-2-3-0-3-5-6-0-5-6-8-0-7-8-10-
d|--------------------------------
g|--------------------------------
b|--------------------------------
e|--------------------------------

D|-------------------------------------------------------------
a|-------------------------------------------------------------
d|-2(x16)-7(x16)-----------------------------------------------
g|-------------------------------------------------------------
b|-------------------------------------------------------------
e|---------------0(x16)-5-5-5-5-5-5-5-5-3-3-3-3-5-5-5-5-0(x16)-

There ya go, hope ya enjoyed it, any questions/comments, my email
is The_entombed25@hotmail.com

Comments about this tab

ChrisS87 - 2005-12-13

you tabbed it upside down. it supposed to start at e and go down to D:

e-----
b-----
g----
D----
A----
D-----

other than that..good job.


sk8a12 - 2005-12-23

wow this is a fairly good tab good job!


Add a comment/correction

Complimentary Christian Ringtones
Dadamobile and CGR have teamed up to bring your favorite Christian artists right to your phone. Sign up today and get 10 complementary ringtones!
Tab Country
Did you know CGR has a sister site w/ country guitar tabs? Well we do! Its called Tab Country. It has a great archive with a lot of country tabs.
Rockin Tabs
Are you looking for a site that has rock guitar tabs? Then Rockintabs.com is the place for you. It is a budding site with many rock guitar tabs. Submit your tab today.
Tab Gallery
Tab Gallery has a compilation of christian, rock, and country tabs all in one place. Come visit us.