Guitar Tabs
song title    band name

Join Us Today!

Don't strum alone...
be a part of the largest online Christian music community. Browse thousands of guitar tabs and chat w/ musicians like yourself.


It's Free!

Audio Adrenaline - Big House

This tab has been rated a 0.00 out of 5 for accuracy. (1 vote)Sorry, but you must be logged in to rate this tab.
Click here to log-in, or you can click here to register.
(Registration is free)

All songs owned by corresponding publishing company. If you make copies of any song on this website, be sure to report your usage to CCLI.
Author/Artist: Audio Adrenaline
Title: Big House
Album: Don't Censor Me
  
 Intro:
 
 6: --------------|----------------|-------^^^-----|------------------|
 5: --------------|----------------|-------^^^-----|------------------|
 4: --------------|------9---------|-------^^^-----|------9--11-11p9--|
 3: ------7-----7-|6--7/99---------|------7^^^---7-|6--7/99--11-11p911|
 2: 4--7/97--7h97-|7--7/9----------|4--7/97^^^7h97-|7--7/9----------11|
 1: 5--7/9---7h9--|----------------|5--7/9-^^^7h9--|------------------|
       /                                   /
    slide                             (muted strum)
 
 Riff 1
                                  { (riff A)                         }
 6: -------^^^-----|-------^^^----|-------^^^-----|------------------|
 5: -------^^^-----|-------^^^----|-------^^^-----|------------------|
 4: -------^^^-----|------9^^^---7|-------^^^-----|------9--11-11p9--|
 3: ------7^^^---7-|6--7/99^^^7h97|------7^^^---7-|6--7/99--11-11p911|
 2: 4--7/97^^^7h97-|7--7/9-^^^7h9-|4--7/97^^^7h97-|7--7/9----------11|
 1: 5--7/9-^^^7h9--|-------^^^----|5--7/9-^^^7h9--|------------------|
 
 Verses (This part looks wierd, but try it while listening to the song)
 
    G#A   A  F#m       C# D            C# D  
 6: 8/9 --9 -9 -9 --9 |9 /10--10-10 10-9 /10|
 5: 9/10--10-10-10--10|9 /10--10-10 10-9 /10|
 4: 8/9 --9 -9 -9 --9 |10/11--11-11 11-10/11|
 3: ---------11-11--11|11/12--12-12 12-11/12|
 2: 0sustain-9 -9 --9 |11/12--12-12 12-11/12|
 1: ------------------|9 /10--10-10 10-9 /10|
 
    G#A   A  F#m       C# D            E D
 6: 8/9 --9 -9 -9 --9 |9 /10--10-10 10-7-5-|
 5: 9/10--10-10-10--10|9 /10--10-10 10-9-7-|
 4: 8/9 --9 -9 -9 --9 |10/11--11-11 11-9-7-|
 3: ---------11-11--11|11/12--12-12 12-9-7-|
 2: 0sustain-9 -9 --9 |11/12--12-12 12-7-5-|
 1: ------------------|9 /10--10-10 10-----|
 
 play (riff A)
 
 play verse lick again
 
 Pre-chorus
 
 6: --------------|--------------|--------------|------------|
 5: --------------|--------------|--------------|------------|
 4: --------------|----------7---|--------------|---------9--|
 3: ----------7---|4---4-7/9-7-9-|----------7---|4--6--9--9--|
 2: 4---4-7/9-7-9-|5---5-7/9---9-|4---5-7/9-7-9-|5--7--9-----|
 1: 5---5-7/9---9-|--------------|5---5-7/9---9-|------------|
 
 Chorus
 play Riff 1 one and a half times.
 
 
 Mini-solo
 
 6: 5--8-5----------|          |5--8-5----------|---------------|
 5: 5--8-5----------|          |5--8-5----------|---------------|
 4: ----------------|play some-|----------------|7h9-9--7 7-6/7-|
 3: ----------------|thin'funky|----------------|7h9-9--7 7-6/7-|
 2: --------4-7/9\7-|          |--------4-7/9\7-|---------------|
 1: --------5-7/9\7-|          |--------5-7/9\7-|---------------|
 
 
 play verse lick
 
 play Pre-chorus lick
 
 play Riff 1 for chorus
 
 Those are the licks and riffs.  Have fun praising God!



 If you want some other Audio Adrenaline tabs, e-mail me and I'll send
'em
 to you if I know the song.
 
 In His Strength,
 Chris
---------------------------------------------------------

Comments about this tab

RK911 - 2005-01-02

your 6 string is ware your 1st string should be


keefer - 2006-05-17

This is what I figured out also. Cool!!!


Add a comment/correction

Complimentary Christian Ringtones
Dadamobile and CGR have teamed up to bring your favorite Christian artists right to your phone. Sign up today and get 10 complementary ringtones!
Tab Country
Did you know CGR has a sister site w/ country guitar tabs? Well we do! Its called Tab Country. It has a great archive with a lot of country tabs.
Rockin Tabs
Are you looking for a site that has rock guitar tabs? Then Rockintabs.com is the place for you. It is a budding site with many rock guitar tabs. Submit your tab today.
Tab Gallery
Tab Gallery has a compilation of christian, rock, and country tabs all in one place. Come visit us.