Guitar Tabs
song title    band name

Join Us Today!

Don't strum alone...
be a part of the largest online Christian music community. Browse thousands of guitar tabs and chat w/ musicians like yourself.


It's Free!

This tab has been rated a 4.00 out of 5 for accuracy. (1 vote)Sorry, but you must be logged in to rate this tab.
Click here to log-in, or you can click here to register.
(Registration is free)

All songs owned by corresponding publishing company. If you make copies of any song on this website, be sure to report your usage to CCLI.
Submitted by: snipr

Song: The World
Band: Nodes of Ranvier
Album: Lost Senses, More Innocence
Tabbedy by: Aaron Bevacqua(swnkylaxplyr@earthlink.net)
Tabbed on: 8.4.04
Tuning: Drop D(e,b,g,d,a,d)

They have an effect going on that makes it sound like tremolo 
picking.

Intro part 1:

E:13-13-------------------------------------------
B:------12-12-13-13-10-10-12-12-------10-10-------
G:------------------------------12-12-------10-10- 4X
D:------------------------------------------------
A:------------------------------------------------
D:------------------------------------------------

Intro part 2:

E:13-13-13-13-------------13-13-13-13-------------
B:------------12-12-12-12-------------12-12-12-12-
G:------------------------------------------------
D:------------------------------------------------
A:------------------------------------------------
D:------------------------------------------------

E:------8/9/8-----9-8-		    
B:6-6-6-------8-8-----		   
G:-------------------- 2X 2nd time: E:9-8- 8X
D:--------------------
A:--------------------
D:--------------------

Verse/Chorus:

E:--------------------------------------------------
B:10-10-10------10-10-10----------------------------
G:x--x--x--9-10-x--x--x--9-10-3-3-3-9-10-5-5-5-10-9- 4X
D:7--7--7--x-x--7--7--7--x-x--x-x-x-x-x--x-x-x-x--x-
A:---------7-8-----------7-8--1-1-1-7-8--3-3-3-8--7-
D:--------------------------------------------------

Every time(except for the first)when they play a D5, they play harmonics.
except for the last one, they go like this: E:7* last one is: E:7*----7*
					    B:-7*	      B:-7*-7*--
					    G:--7*	      G:--7*-7*-
E:------------------
B:------------------
G:----------------7-
D:00000-1/7-00000-7-
A:00000-1/7-00000-5-
D:00000-1/7-00000---
  .....     .....

Bridge part 1(clean)

E:---------------------------------------------------
B:---------------------------------------------------
G:14-14-14-14-12-12-12-12-15-15-15-15-10-10-10-9-9-7-
D:x--x--x--x--x--x--x--x--x--x--x--x--x--x--x--x-x-x-
A:12-12-12-12-10-10-10-10-13-13-13-13-8--8--8--7-7-5-
D:---------------------------------------------------

Bridge part 2(distorted)

E:-------------------------------------------------------
B:-------------------------------------------------------
G:14-14-14/15/14--12-12-12/14/12--15-15-15/17/15--10-9-7-
D:x--x--x-/x-/x---x--x--x-/x-/x---x--x--x-/x-/x---x--x-x-
A:12-12-12/13/12--10-10-10/12/10--13-13-13/15/13--8--7-5-
D:-------------------------------------------------------

Background Bridge part 2

Just play this a few times during the bridge

E:
B:
G:
D:0000
A:0000
D:0000
  ....

Well that's it! Tell me what you think, or tell me of any corrections 
you'd make.

Comments about this tab

Michael G - 2004-09-20

could you please e-mail me the chords with the words? i would like to sing this song in church and i need the chords, not the tabs.

thanks,
Michael Griffith
michael_sbu@yahoo.com


Add a comment/correction

Complimentary Christian Ringtones
Dadamobile and CGR have teamed up to bring your favorite Christian artists right to your phone. Sign up today and get 10 complementary ringtones!
Tab Country
Did you know CGR has a sister site w/ country guitar tabs? Well we do! Its called Tab Country. It has a great archive with a lot of country tabs.
Rockin Tabs
Are you looking for a site that has rock guitar tabs? Then Rockintabs.com is the place for you. It is a budding site with many rock guitar tabs. Submit your tab today.
Tab Gallery
Tab Gallery has a compilation of christian, rock, and country tabs all in one place. Come visit us.