Guitar Tabs
song title    band name

Join Us Today!

Don't strum alone...
be a part of the largest online Christian music community. Browse thousands of guitar tabs and chat w/ musicians like yourself.


It's Free!

This tab has been rated a 4.17 out of 5 for accuracy. (12 votes)Sorry, but you must be logged in to rate this tab.
Click here to log-in, or you can click here to register.
(Registration is free)

All songs owned by corresponding publishing company. If you make copies of any song on this website, be sure to report your usage to CCLI.
Submitted by: Josh Thomas

Song: When In Doubt (Track #4)
Band: Thousand Foot Krutch
Album: Set It Off
Copyright: 2000 DJD Entertainment
Tabbed By: Me (Yoshi) T (Santhomasito@hotmail.com)


!!Standard Tuning!!


Intro & Verse (clean):
(1)
e-----------------------------------------------------------------------------
b-----------------------------------------------------------------------------
g----------7------------------------------------------------------------------
D------7-------7----------------7----------------9----------------------------
A--5-5---5---5---5--------7-------7----------9-------9-----------5-----5------
E---------------------5-5---5-5-----5----7-7---7---7----7----3-3---3-3---3\5--
(2)
e-----------------------------------------------------------------------------
b-----------------------------------------------------------------------------
g----------7------------------------------------------------------------------
D------7-------7--------------7---7--------------9----------------------------
A--5-5---5---5---5--------7---------7--------9-------9-----------5-----5------
E---------------------5-5---5---5--------7-7---7---7----7----3-3---3-3---3\5--

(1)X2
(2)X2

(on last time around)
e----
B----
G----
D-3-3
A-3-3
E-5-5

Distortion Part: (lead)(X2)
e-----------------------------------------------
B-----------------------------------------------
G-----------------------------------------------
D--7-7-5-5-4---7-7-5-5-4---7-7-5-5-4---0-0-4-4-5
A-----------------------------------------------
E-----------------------------------------------


Rythm Part: w/lead(X2)
e-----------------------------------------------------------
b-----------------------------------------------------------
g--7-7-7-7-7-7----------------------------------------------
D--7-7-7-7-7-7--7-7-7-7-7-7-7--9-9-9-9-9-9-9---5-5-5-5-5-5-5
A--5-5-5-5-5-5--7-7-7-7-7-7-7--9-9-9-9-9-9-9---5-5-5-5-5-5-5
E---------------5-5-5-5-5-5-5--7-7-7-7-7-7-7---3-3-3-3-3-3-3


Verse (distortion): X2
e------------------------------------
B------------------------------------
G--7-x-x-7---------------------------
D--7-x-x-7--7-x-x-7--9-x-x-9--5-x-x-5
A--5-x-x-5--7-x-x-7--9-x-x-9--5-x-x-5
E-----------5-x-x-5--7-x-x-7--3-x-x-3


Verse (distortion): X2
e--------------------------------------------------------------------
B--------------------------------------------------------------------
G--7-7-7-7-7-7-7-7---------------------------------------------------
D--7-7-7-7-7-7-7-7--7-7-7-7-7-7-7-7--9-9-9-9-9-9-9-9--5-5-5-5-5-5-5-5
A--5-5-5-5-5-5-5-5--7-7-7-7-7-7-7-7--9-9-9-9-9-9-9-9--5-5-5-5-5-5-5-5
E-------------------5-5-5-5-5-5-5-5--7-7-7-7-7-7-7-7--3-3-3-3-3-3-3-3


Chorus (distortion): X2
e------------------------------------------
B------------------------------------------
G--7-7-x-x-7-7-----------------------------
D--7-7-x-x-7-7--7-7-x-x-7-7--9-9-x-x-9-9--5
A--5-5-x-x-5-5--7-7-x-x-7-7--9-9-x-x-9-9--5
E---------------5-5-x-x-5-5--7-7-x-x-7-7--3


Distortion Part: (lead)X2
e-----------------------------------------------
B-----------------------------------------------
G-----------------------------------------------
D--7-7-5-5-4---7-7-5-5-4---7-7-5-5-4---0-0-4-4-5
A-----------------------------------------------
E-----------------------------------------------


Rythm Part: X2 w/lead
e-----------------------------------------------------------
b-----------------------------------------------------------
g--7-7-7-7-7-7----------------------------------------------
D--7-7-7-7-7-7--7-7-7-7-7-7-7--9-9-9-9-9-9-9---5-5-5-5-5-5-5
A--5-5-5-5-5-5--7-7-7-7-7-7-7--9-9-9-9-9-9-9---5-5-5-5-5-5-5
E---------------5-5-5-5-5-5-5--7-7-7-7-7-7-7---3-3-3-3-3-3-3


(on 2nd time around)
e-------------
B-------------
G-3----------3
D-3----------3
A-5----------5
E-------------


Solo:   (w/ dist.) X3
e-----------------------------------|-------------
B-----------------------------------|-------------
G-----------------------------------|-------------
D--7-7-7-7-7-7-7-7-7-7-7-7-7-7-7-7-7|------5-5-4-5
A-----------------------------------|-------------
E-----------------------------------|-------------

(X1)
e-------------------------------------------------
B-------------------------------------------------
G-------------------------------------------------
D--7-7-7-7-7-7-7-7-7-7-7-7-7-7-7-7-7-7-7-7-7-7-7-7
A-------------------------------------------------
E-------------------------------------------------


Verse (distortion):
e--------------------------------------------------------------------
B--------------------------------------------------------------------
G--7-7-7-7-7-7-7-7---------------------------------------------------
D--7-7-7-7-7-7-7-7--7-7-7-7-7-7-7-7--9-9-9-9-9-9-9-9--5-5-5-5-5-5-5-5
A--5-5-5-5-5-5-5-5--7-7-7-7-7-7-7-7--9-9-9-9-9-9-9-9--5-5-5-5-5-5-5-5
E-------------------5-5-5-5-5-5-5-5--7-7-7-7-7-7-7-7--3-3-3-3-3-3-3-3


e--------------------------------------------------------
B--------------------------------------------------------
G--7-7-7-7-7-7-7-7---------------------------------------
D--7-7-7-7-7-7-7-7--7-7-7-7-7-7-7-7--9-9-9-9-9-9-9-9--5-5
A--5-5-5-5-5-5-5-5--7-7-7-7-7-7-7-7--9-9-9-9-9-9-9-9--5-5
E-------------------5-5-5-5-5-5-5-5--7-7-7-7-7-7-7-7--3-3


Chorus (distortion): X2
e------------------------------------------
B------------------------------------------
G--7-7-x-x-7-7-----------------------------
D--7-7-x-x-7-7--7-7-x-x-7-7--9-9-x-x-9-9--5
A--5-5-x-x-5-5--7-7-x-x-7-7--9-9-x-x-9-9--5
E---------------5-5-x-x-5-5--7-7-x-x-7-7--3


Distortion Part: (lead)X2
e-----------------------------------------------
B-----------------------------------------------
G-----------------------------------------------
D--7-7-5-5-4---7-7-5-5-4---7-7-5-5-4---0-0-4-4-5
A-----------------------------------------------
E-----------------------------------------------


Rythm Part: X2 w/lead
e-----------------------------------------------------------
b-----------------------------------------------------------
g--7-7-7-7-7-7----------------------------------------------
D--7-7-7-7-7-7--7-7-7-7-7-7-7--9-9-9-9-9-9-9---5-5-5-5-5-5-5
A--5-5-5-5-5-5--7-7-7-7-7-7-7--9-9-9-9-9-9-9---5-5-5-5-5-5-5
E---------------5-5-5-5-5-5-5--7-7-7-7-7-7-7---3-3-3-3-3-3-3


End:
e------------------------------------
B------------------------------------
G--7-x-x-7---------------------------
D--7-x-x-7--7-x-x-7--9-x-x-9--5-x-x-5
A--5-x-x-5--7-x-x-7--9-x-x-9--5-x-x-5
E-----------5-x-x-5--7-x-x-7--3-x-x-3


e-------------------
B-------------------
G------------------7
D-5-5-5-5-5-5-5-5--7
A-5-5-5-5-5-5-5-5--5
E-3-3-3-3-3-3-3-3---






First off, i didn't tab this. I'm not that skilled, yet. I gathered tab from 
various sites and then compiled them.I listened to the song a billion times. 
It's one of the best tabs (in the way of order and construction) there is. 
My gratitude goes to those who actually tabbed this song. It isn't perfect, 
of course, but very near close. For timing and rhythm one must definately 
listen to the cd. Give it a shot. It's an amazing song. TFK, the best christian 
rock/rap band out there. Rock out. Have fun. Got a question, write me. Peace. 
Oh, and, of course, embarass yourself trying.

Josh 

Comments about this tab

sk84him - 2005-01-11

hey man...good ear...its just i've been listening to the song over n over and i think theres something missing in the intro...i dont know...i "think" there is
i play this song like this...half a step down...and i use a capo on the 2nd fret(but it doesnt really matter)
the 2nd time u play the progression in the intro...play>>>
e|-----------------------------------------------------------------------
b|----------9------------------------------------------------------------
g|----------9-9-----------9-9--------------------------------------------
d|------9-------9-------------9----------11------------------------------
a|--7-7---7-----------9-------------11---11-11--------7-----7------------
E|----------------7-7---7-------9-9----9-------9--5-5---5-5---5-5-5/7----
then for the "third" time 'round...u play it like the first time(the way u have it)
this just makes it sound a lil' more like the cd...know?
i dunno...i do my best...i may be wrong...and that wouldnt be so surprising...so y'all just do ur best! and krutch fans rock on!
it's all 4 Christ's glory!


sk84him - 2005-01-15

hey...its me again...just correcting the last "correction" i did...

e|-------------------------|------------------------------------------
b|----------9-------------(V let thz notes ring)----------------------
g|----------9-9-----------9-9-----------------------------------------
d|------9-------9-------------9----------11-12-11-9-------------------
a|--7-7---7-----------9-------------11-------------------7-----7------
E|----------------7-7---7-------9-9----9-------------5-5---5-5---5/7--

there... i think thats right(and again...this is the second progession)

all 4 Christ's glory!
krutch fans...rock on!
peace


Mosy - 2005-09-02

wuts the point of standard tuning when the bottom string would be way better tuned to a D so that u can just barre the chords? i dont get u people o(-.- )o


I Rock 4 Christ - 2006-01-14

Thats not the way i did it. mine is at the bottum of the list. the newest one check it out!!!


Jeffrey92 - 2006-01-31

Heres an intro that is on this site actually, i think it really is the right one.... but there is a LOT of controversey over this one intro tab...
e------------------------------------------------------------------|
B----------3-------------------------------------------------------|
G------2-------2---------------2-----------4-----------------------|
D--0-0---0---0---0-----2-----2---------4-------4-------------------|
A------------------0-0---0-0-----0-2-2---2---2---2-----5-----5-----|
E--------------------------------------------------3-3---3-3---3/5-|
Intro again, but this time it's a bit different:
e----------2----------------------------------------------------|
B----------3--------------3-3-----------------------------------|
G------2------2-----------2-2-----------------------------------|
D--0-0---0------0-----2--------------4---4-5-2------------------|
A-----------------0-0---0------0-2-2---2-2-2-2-----5-----5------|
E----------------------------------------------3-3---3-3---3/5--|

i found that this is the best one, fits the song perfectly.


akaukal - 2006-03-28

none of u seem to get the intro right...


|)rink)v(tn|)ew - 2006-09-01

uh well, i think sk84him is a little mixed up but if you(lol) put it in the right key, it sounds really good...the song is ezest to play in drop D( no Q about that)


Add a comment/correction

Complimentary Christian Ringtones
Dadamobile and CGR have teamed up to bring your favorite Christian artists right to your phone. Sign up today and get 10 complementary ringtones!
Tab Country
Did you know CGR has a sister site w/ country guitar tabs? Well we do! Its called Tab Country. It has a great archive with a lot of country tabs.
Rockin Tabs
Are you looking for a site that has rock guitar tabs? Then Rockintabs.com is the place for you. It is a budding site with many rock guitar tabs. Submit your tab today.
Tab Gallery
Tab Gallery has a compilation of christian, rock, and country tabs all in one place. Come visit us.