Guitar Tabs
song title    band name

Join Us Today!

Don't strum alone...
be a part of the largest online Christian music community. Browse thousands of guitar tabs and chat w/ musicians like yourself.


It's Free!

This tab has not yet been rated for accuracy.Sorry, but you must be logged in to rate this tab.
Click here to log-in, or you can click here to register.
(Registration is free)

All songs owned by corresponding publishing company. If you make copies of any song on this website, be sure to report your usage to CCLI.
Focal Point
Enraged

Tabbed by: jon

tuning=dropped-D
you have to listen to the song to get the rhythm

riff-1
clean guitar
B------6----------6--
G-------------------- guitar-1 plays this until first verse
D--3\5---5-----5-----
A-----------6--------
D--------------------

riff-2
distorted guitar
D--------5--5-5/3----------5--5\7/3--
A--0-----3--3-3/1----0-----3--3\5/1--  guitar-2 plays this over riff-1
D--0-----------------0---------------

part just before verse
A--5-5\6-6-6/5-5-5/3

1st verse, riff-3
D---------------5-5\8-8--
A--0----00---0--3-3\6-6--
D--0----00---0-----------
then add the D-octave

clean guitar
A--5-5\6--

distorted, riff-4
D-----7-8--------7-8-8-10--
A--0--5-6--1--0--5-6-6-8 --
D--0------01--0------------

riff-5
D-----8-7----------8-7---8-7----
A--0--6-5--11---0--6-5-------8--
D--0-------11---0---------------

riff-6,
A--0--0000---0--0000-5\6--
D--0--0000---0--0000------

A--5--/3--\6--5--/3--\6--5


D--00-0-0---11-1--0\1--
A--00-0-0---11-1-------
D--00-0-0---11-1-------

A--0---3----0---3--6
D--0---3----0---3--6

and the end is just a bunch of
palm muted D's

Comments about this tab

No comments/corrections found. Add your own

Complimentary Christian Ringtones
Dadamobile and CGR have teamed up to bring your favorite Christian artists right to your phone. Sign up today and get 10 complementary ringtones!
Tab Country
Did you know CGR has a sister site w/ country guitar tabs? Well we do! Its called Tab Country. It has a great archive with a lot of country tabs.
Rockin Tabs
Are you looking for a site that has rock guitar tabs? Then Rockintabs.com is the place for you. It is a budding site with many rock guitar tabs. Submit your tab today.
Tab Gallery
Tab Gallery has a compilation of christian, rock, and country tabs all in one place. Come visit us.