Guitar Tabs
song title    band name

Join Us Today!

Don't strum alone...
be a part of the largest online Christian music community. Browse thousands of guitar tabs and chat w/ musicians like yourself.


It's Free!

This tab has not yet been rated for accuracy.Sorry, but you must be logged in to rate this tab.
Click here to log-in, or you can click here to register.
(Registration is free)

All songs owned by corresponding publishing company. If you make copies of any song on this website, be sure to report your usage to CCLI.
Submitted by: Andrew_W

Redemption by Jars of Clay
From the album Furthermore: Disk 1, Songs from the Studio
Tabbed by Andrew Wong


These should be the patterns for the full song.  There's a little bit of 
variation, but after you get this down it's not hard to add the extra 
flare here and there.  The intro remains the same as my original post, 
but hopefully this will sedate the rest of you who wanted the WHOLE THING.  :)
Enjoy.




Capo 2nd fret
(All notes relative to capo)


Intro 
E---------------------------------------------------------------------
B-----------------1-----------1----1----------1-------3---1-----------
G-------------0-------0---0--------0------0------0-------------0----0-
D----2---3---------------------------0h2------------------------------
A-0----0---0----0------------------3---------------2----2---2----2----
E-------------------1---1---1---1-------------------------------------


E-------------------
B---------------1---
G-----------0-------
D----2--3-----------
A--0--0---0---0-----
E---------------1---


E-----------------------------------
B--------1---1-----1----------1---1-
G----------0---0----0-0---------0--0
D----0h2-------------2-----2h3------
A--3--------------------------------
E-------------------------1---------

E------------0---1p0--------------0
B--------1-----1----1-----------1--
G----------0------------------0----
D----0h2------------------2h3------
A--3-------------------------------
E-----------------------1----------

E-------------------------------------------------
B-------1---------3---1------------------------1--
G----0----0---0---------0---0---------0-----------
D-------------------------------2--3-----2--3-----
A--3--3--3--3---2---2--2--2---0--0--0-------------
E---------------------------------------1--1--1---


E-------------------------------------------------
B-------1---------3---1-------------------1-------
G----0----0---0---------0---0---------0-----------
D-------------------------------2--3--------------
A--3--3--3--3---2---2--2--2---0--0--0---0---------
E-----------------------------------------1-------


Andrew W.
xWx
check out The Retail Age!!!!!!
www.purevolume.com/theretailage
listen to their music!!!

Comments about this tab

No comments/corrections found. Add your own

Complimentary Christian Ringtones
Dadamobile and CGR have teamed up to bring your favorite Christian artists right to your phone. Sign up today and get 10 complementary ringtones!
Tab Country
Did you know CGR has a sister site w/ country guitar tabs? Well we do! Its called Tab Country. It has a great archive with a lot of country tabs.
Rockin Tabs
Are you looking for a site that has rock guitar tabs? Then Rockintabs.com is the place for you. It is a budding site with many rock guitar tabs. Submit your tab today.
Tab Gallery
Tab Gallery has a compilation of christian, rock, and country tabs all in one place. Come visit us.