Guitar Tabs
song title    band name

Join Us Today!

Don't strum alone...
be a part of the largest online Christian music community. Browse thousands of guitar tabs and chat w/ musicians like yourself.


It's Free!

This tab has been rated a 3.00 out of 5 for accuracy. (3 votes)Sorry, but you must be logged in to rate this tab.
Click here to log-in, or you can click here to register.
(Registration is free)

All songs owned by corresponding publishing company. If you make copies of any song on this website, be sure to report your usage to CCLI.
Submitted by: p2008j

Artist: Demon Hunter
Song: Beheaded
Album: Summer of Darkness
Tabber: Patrick Ray (P2008J@yahoo.com)
Tuning: C G C F A D
* = Mute
. = Palm mute
Intro Riff:
D-----------------|
A-----------------|
F-----------------|
C-7-1-2-3-7-1-2-3-|
G-7-1-2-3-7-1-2-3-|
C-7-1-2-3-7-1-2-3-|
2x

Intro Part II/Verse:
(during verse do not mute)
D-------------------------------------------------
A-------------------------------------------------
F-------------------------------------------------
C-7-0-0-7-0-0-7-0-0-7-0-7-6-0-0-6-0-0-6-0-0-6-0-6-
G-7-0-0-7-0-0-7-0-0-7-0-7-6-0-0-6-0-0-6-0-0-6-0-6-
C-7-0-0-7-0-0-7-0-0-7-0-7-6-0-0-6-0-0-6-0-0-6-0-6-
    * *   * *   * *   *     * *   * *   * *   *
D-------------------------|
A-------------------------|
F-------------------------|
C-3-0-0-3-0-0-3-0-0-3-0-3-|
G-3-0-0-3-0-0-3-0-0-3-0-3-|
C-3-0-0-3-0-0-3-0-0-3-0-3-|
    * *   * *   * *   *

Pre-Chorus (Mike's part):
D------------------------------------|
A------------------------------------|
F------------------------------------|
C-7-7-7-7---6-6-6-6---3-3-3-3---0-0-0|
G-7-7-7-7---6-6-6-6---3-3-3-3---0-0-0|
C-77-7-7---6-6-6-6---3-3-3-3---0-0-0|

Chorus:
D-----------------------------------|
A-----------------------------------|
F-----------------------------------|
C-0-0-0---0-0---0-0-0---0-0-7-1-2-3-|
G-0-0-0---0-0---0-0-0---0-0-7-1-2-3-|
C-0-0-0---0-0---0-0-0---0-0-7-1-2-3-|
  . . .   . .   . . .   . .       
D----------------------------------|
A----------------------------------|
F----------------------------------|
C-0-0-0-0-0-0-0-0-0-0-0-0-0-7-1-2-3|
G-0-0-0-0-0-0-0-0-0-0-0-0-0-7-1-2-3|
C-0-0-0-0-0-0-0-0-0-0-0-0-0-7-1-2-3|
  . . . . . . . . . . . . .

Bridge:
D-----------------|
A-----------------|
F-----------------|
C-0--/7---6---2-3-|
G-0--/7---6---2-3-|
C-0--/7---6---2-3-|

I'm pretty sure this is right if something is just correct it if you can

Comments about this tab

downfall321 - 2004-08-07

ya the verse is wrong, look at my tab, which is above yours, the first beheaded. the timing is off on the verse, and theres no 0's. the pre choirus is wrong too. sorry.


Add a comment/correction

Complimentary Christian Ringtones
Dadamobile and CGR have teamed up to bring your favorite Christian artists right to your phone. Sign up today and get 10 complementary ringtones!
Tab Country
Did you know CGR has a sister site w/ country guitar tabs? Well we do! Its called Tab Country. It has a great archive with a lot of country tabs.
Rockin Tabs
Are you looking for a site that has rock guitar tabs? Then Rockintabs.com is the place for you. It is a budding site with many rock guitar tabs. Submit your tab today.
Tab Gallery
Tab Gallery has a compilation of christian, rock, and country tabs all in one place. Come visit us.