Guitar Tabs
song title    band name

Join Us Today!

Don't strum alone...
be a part of the largest online Christian music community. Browse thousands of guitar tabs and chat w/ musicians like yourself.


It's Free!

This tab has been rated a 1.33 out of 5 for accuracy. (6 votes)Sorry, but you must be logged in to rate this tab.
Click here to log-in, or you can click here to register.
(Registration is free)

All songs owned by corresponding publishing company. If you make copies of any song on this website, be sure to report your usage to CCLI.
Submitted by: IncuThrice07

-------------------------------------------------------------------------------
            FOR THE MOMENTS I FEEL FAINT - Relient K
-------------------------------------------------------------------------------

By:  Gary(garyhale@spu.edu)

/ \ - slide
x
x   - scratching
x

GUITAR 1'S PARTS:
-----------------
Chords Used:
    E  Asus2  C#m7 Bsus4  F#   A   C
e|--0----0-----0-----0-----0---0---0-----|
B|--0----0-----0-----0-----0---2---0-----|
G|--1----2-----6-----4-----3---2---5-----|
D|--2----2-----6-----4-----4---2---5-----|
A|--2----0-----4-----2-----4---0---3-----|
E|--0----------------------2-------------|

Intro:  E - Asus2 - C#m7 - Bsus4  (2x)

Verse:  E - Asus2 - C#m7 - Bsus4 (4x)

Chorus:  E - Asus2 - C#m7 - Bsus4 (4x)

2nd Verse:  E - Asus2 - C#m7 - Bsus4 (4x)

Repeat Chorus

Bridge:  E - Asus2 - C#m7 - C (2x)
         F# - A - E - Asus2 - C#m7 - Bsus4

Repeat Intro:  (2x)

Repeat Chorus:  (6x)

End on:  E

GUITAR 2'S PARTS:
-----------------
Intro/Outro:  (2x)
e|-------0---0--0----0---0---0-----0--0--0--0--0--------0---0----0--0--------|
B|-------0---0--0----0---0---0-----0--0--0--0--0--------0---0----0--0--------|
G|------13--13-13---14--13--11----13-13-13-13-13--------8---9---11-11--------|
D|-x-----x---x--x-x--x---x---x--x--x--x--x--x--x-x-x--x-x-x-x-x--x--x--------|
A|-x-11-11--11-11-x-12--11---9--x-11-11-11-11-11-x-x--x-6-x-7-x--9--9--------|
E|-x--0-----------x-------------x--0-------------x-x--x---x---x--------------|

Verse:
e|-0--0--0--0--0--0--0--0--0--0--0--0--0--0--0--0--0--0--0--0--0--0--0--0--0-|
B|-0--0--0--0--0--0--0--0--0--0--0--0--0--0--0--0--0--0--0--0--0--0--0--0--0-|
G|13-13-13-13-13-13-13-13-13-13-13-13-13-13-13-13-13-13-13-13-13-13-13-13-13-|
D|-x--x--x--x--x--x--x--x--x--x--x--x--x--x--x--x--x--x--x--x--x--x--x--x--x-|
A|11-11-11-11-11-11-11-11-11-11-11-11-11-11-11-11-11-11-11-11-11-11-11-11-11-|
E|---------------------------------------------------------------------------|

Verse Cont'd:
e|---------------------------|
B|---------------------------|
G|11-11-11-11-11-11-11-11----|
D|-x--x--x--x--x--x--x--x----|
A|-9--9--9--9--9--9--9--9----|
E|---------------------------|

Verse Cont'd:  (3x)
e|0-0-0-0-0-0-0-0-0-0-0-0-0-0-0-0--0--0--0--0--0--0--0--0--------------------|
B|0-0-0-0-0-0-0-0-0-0-0-0-0-0-0-0--0--0--0--0--0--0--0--0--------------------|
G|9-9-9-9-9-9-9-9-9-9-9-9-9-9-9-9/13-13-13-13\11-11-11-11--------------------|
D|x-x-x-x-x-x-x-x-x-x-x-x-x-x-x-x--x--x--x--x--x--x--x--x--------------------|
A|7-7-7-7-7-7-7-7-7-7-7-7-7-7-7-7/11-11-11-11\-9--9--9--9--------------------|
E|---------------------------------------------------------------------------|

Chorus:  (4x)
e|-0--0--0--0--0--0--0--0--0--0--0--0--0--0--0--0--0--0--0--0--0--0--0--0--0-|
B|-0--0--0--0--0--0--0--0--0--0--0--0--0--0--0--0--0--0--0--0--0--0--0--0--0-|
G|13-13-13-13-13-13-13-13-13-13-13-13-13-13-13-13-13-13-13-13-13-13-13-13-13-|
D|-x--x--x--x--x--x--x--x--x--x--x--x--x--x--x--x--x--x--x--x--x--x--x--x--x-|
A|11-11-11-11-11-11-11-11-11-11-11-11-11-11-11-11-11-11-11-11-11-11-11-11-11-|
E|---------------------------------------------------------------------------|

Chorus Cont'd:
e|-0--0--0--0--0--0--0--0----|
B|-0--0--0--0--0--0--0--0----|
G|11-11-11-11-11-11-11-11----|
D|-x--x--x--x--x--x--x--x----|
A|-9--9--9--9--9--9--9--9----|
E|---------------------------|

Repeat Intro:  (Play same as guitar 1 though)

Repeat Verse:  (Play same as guitar 1 because strings instruments take over
                for 2nd guitar during this verse and next chorus)

Repeat Chorus:  (Play same as guitar 1)

Bridge:  (Play same as guitar 1)

Repeat Intro:  (Play same as guitar 1)

Repeat Chorus:  (Play same as guitar 1)

Outro:  (Play same as guitar 1 2x, then play intro part 2x)

End on:  E

Visit http://www.geocities.com/ggtabs07 for more tabs!
===============================================================================

Comments about this tab

unknown - 2004-08-13

it's wrong dude.


surge88 - 2004-09-25

good job with the chords
i dont know about the guitar 2 part though


jsoccer - 2004-11-03

Chords, yes. the guitar 2 no


mmggppmgp - 2004-12-31

im recommendin this song i need like the song # thingy... u get me??? like for songs u need to hav a CCLI??? wut eva it is something song # to hav the words up on overhead or power point... yeah i will really appricciate it if u guys noe and email it to me at michael_97124@hotmail.com or Aim at guitarchef97124... GOD BLESS AND RAWK OUT FOR JESUS, CUZ HE DESERVES IT ALL!!!


takamine cory - 2005-03-01

its right but no guitar 2


bus faucet - 2005-04-26

im pretty sure there is another guitar doing the riffy thing atleast at the beginning 'cause it doesn't really sound like a voilin there. not that this tab for that part is correct or not.


blazer - 2005-05-01

Pretty crappy job on the tab dude


christ 4 real - 2005-06-01

there is only 1 guitar on this song. youre wrong


golden_geetar - 2005-06-22

im sorry for bashing you so hard dude. i realize now that you are closer thatn what alot of people are wtrittin. sorry for ruining your rep.


IncuThrice07 - 2005-06-23

Hey everyone, I tabbed this, and just a tip for you before you rip apart my tab...put the balance all the way to the right on whatever you use to listen to music and you'll hear the 2nd guitar part. The left channel is the chords and the right channel does the octave parts.


Add a comment/correction

Complimentary Christian Ringtones
Dadamobile and CGR have teamed up to bring your favorite Christian artists right to your phone. Sign up today and get 10 complementary ringtones!
Tab Country
Did you know CGR has a sister site w/ country guitar tabs? Well we do! Its called Tab Country. It has a great archive with a lot of country tabs.
Rockin Tabs
Are you looking for a site that has rock guitar tabs? Then Rockintabs.com is the place for you. It is a budding site with many rock guitar tabs. Submit your tab today.
Tab Gallery
Tab Gallery has a compilation of christian, rock, and country tabs all in one place. Come visit us.