Guitar Tabs
song title    band name

Join Us Today!

Don't strum alone...
be a part of the largest online Christian music community. Browse thousands of guitar tabs and chat w/ musicians like yourself.


It's Free!

This tab has been rated a 3.73 out of 5 for accuracy. (11 votes)Sorry, but you must be logged in to rate this tab.
Click here to log-in, or you can click here to register.
(Registration is free)

All songs owned by corresponding publishing company. If you make copies of any song on this website, be sure to report your usage to CCLI.
Submitted by: Joe_I_Am

Song: Step to Me
copyright TFK

tuning: Dropped- D

ok, this is a fairly easy song. in the intro theres that little fade-in 
type of guitar that goes like: 
e----------------------------------------------------
b----------------------------------------------------
g--4-------5-------4-------7-------5/-4--------------
d--x-------x-------x-------x-------x--x--------------
a--2-------3-------2-------5-------3/-2--------------
E----------------------------------------------------

then

e--------------------------------------------------------------------------
b--------------------------------------------------------------------------
g--------------------------4-4-4-4---------------------------5-5-5-5-------
d--2---2-2-2-2---2-0-0-0---x-x-x-x---2---2-2-2-2---2-0-0-0---x-x-x-x-------
a--2---2-2-2-2---2-0-0-0---2-2-2-2---2---2-2-2-2---2-0-0-0---3-3-3-3-------
E--2---2-2-2-2---2-0-0-0-------------2---2-2-2-2---2-0-0-0-----------------
      p.m.....                          p.m....
e--------------------------------------------------------------------------
b--------------------------------------------------------------------------
g--------------------------4-4-4-4-----------------------------------------
d--2---2-2-2-2---2-0-0-0---x-x-x-x---10-10-10-10---9--7--5--7--------------
a--2---2-2-2-2---2-0-0-0---2-2-2-2---10-10-10-10---9--7--5--7--------------
E--2---2-2-2-2---2-0-0-0-------------10-10-10-10---9--7--5--7--------------
     p.m......

There’s no guitar in the verse- just bass, until...

e--------------------------------------------------------------------------
b--------------------------------------------------------------------------
g--------------------------4-4-4-4---------------------------5-5-5-5-------
d--2---2-2-2-2---2-0-0-0---x-x-x-x---2---2-2-2-2---2-0-0-0---x-x-x-x-------
a--2---2-2-2-2---2-0-0-0---2-2-2-2---2---2-2-2-2---2-0-0-0---3-3-3-3-------
e--2---2-2-2-2---2-0-0-0-------------2---2-2-2-2---2-0-0-0-----------------
     p.m.......                        p.m......

e------------------------------------------------------------------------
b------------------------------------------------------------------------
g--------------------------4-4-4-4---------------------------------------
d--2---2-2-2-2---2-0-0-0---x-x-x-x---10-10-10-10--x-x-x-x-x-x-x-x--------
a--2---2-2-2-2---2-0-0-0---2-2-2-2---10-10-10-10--x-x-x-x-x-x-x-x--------
e--2---2-2-2-2---2-0-0-0-------------10-10-10-10--x-x-x-x-x-x-x-x--------
     p.m.....

Chorus

e----------------------------------------------------------------------------------------
b----------------------------------------------------------------------------------------
g------------------------------------4-4-4-4-------------------------------------5-5-5-5-
d--2---2-2-2--0-0---5---0--0--0--0---x-x-x-x---2---2-2-2--0-0---5---0--0--0--0---x-x-x-x-
a--2---2-2-2--0-0---5---0--0--0--0---2-2-2-2---2---2-2-2--0-0---5---0--0--0--0---3-3-3-3-
e--2---2-2-2--0-0---5---0--0--0--0-------------2---2-2-2--0-0---5---0--0--0--0-----------   x2

Then there’s the verse again, which leads to…

e--------------------------------------------------------------------------
b--------------------------------------------------------------------------
g--------------------------4-4-4-4---------------------------5-5-5-5-------
d--2---2-2-2-2---2-0-0-0---x-x-x-x---2---2-2-2-2---2-0-0-0---x-x-x-x-------
a--2---2-2-2-2---2-0-0-0---2-2-2-2---2---2-2-2-2---2-0-0-0---3-3-3-3-------
e--2---2-2-2-2---2-0-0-0-------------2---2-2-2-2---2-0-0-0-----------------
      p.m.....                         p.m......

e-------------------------------------------------------------------------
b-------------------------------------------------------------------------
g--------------------------4-4-4-4----------------------------------------
d--2---2-2-2-2---2-0-0-0---x-x-x-x---10-10-10-10--x-x-x-x-x-x-x-x---------
a--2---2-2-2-2---2-0-0-0---2-2-2-2---10-10-10-10--x-x-x-x-x-x-x-x---------
e--2---2-2-2-2---2-0-0-0-------------10-10-10-10--x-x-x-x-x-x-x-x---------
     p.m......

Then the Chorus again….

e------------------------------------------------------------------------------------------
b------------------------------------------------------------------------------------------
g------------------------------------4-4-4-4-------------------------------------5-5-5-5---
d--2---2-2-2--0-0---5---0--0--0--0---x-x-x-x---2---2-2-2--0-0---5---0--0--0--0---x-x-x-x---
a--2---2-2-2--0-0---5---0--0--0--0---2-2-2-2---2---2-2-2--0-0---5---0--0--0--0---3-3-3-3---
e--2---2-2-2--0-0---5---0--0--0--0-------------2---2-2-2--0-0---5---0--0--0--0------------- x2

Then there’s the bridge, but it doesn’t have any guitar in it, except for the little part 
played with a flanger that just goes like

d--x-x-x-x---x-x-x-x---x-x
a--x-x-x-x---x-x-x-x---x-x
E--x-x-x-x---x-x-x-x---x-x	


Then you just play the chorus again. Then there’s a little variation of the 
pre-chorus that goes like…

e------------------------------------------------------------------------------
b------------------------------------------------------------------------------
g------------------------------------------------------------------------------
d--2---2-2-2-2---2-0-0-0-------2---2-2-2-2---2-0-0-0---------------------------
a--2---2-2-2-2---2-0-0-0-------2---2-2-2-2---2-0-0-0---------------------------
e--2---2-2-2-2---2-0-0-0-------2---2-2-2-2---2-0-0-0---------------------------
      p.m.....                  p.m.......
e--------------------------------------------------------------------------
b--------------------------------------------------------------------------
g--------------------------4-4-4-4-----------------------------------------
d--2---2-2-2-2---2-0-0-0---x-x-x-x---10-10-10-10---9--7--5--7--------------
a--2---2-2-2-2---2-0-0-0---2-2-2-2---10-10-10-10---9--7--5--7--------------
e--2---2-2-2-2---2-0-0-0-------------10-10-10-10---9--7--5--7--------------
      p.m.....

and thats the end of the song. have fun ;) 

Comments about this tab

Ddog - 2004-11-19

Awesome job!!


chickwithguitar - 2005-01-21

thanks man this is awsome song!! your pro :)><>


joellaw44 - 2005-07-03

The octaves on the chorus aren't right, the rest is perfect.


tsr4e - 2005-09-07

ya maybe they are like

G--5/7---------
D--x/x---------
A--3/5---------
D--------------


Dani_Boy - 2006-03-25

I play the main riff thingy like this:
G|--------------|
D|--2--xx22-20--|
A|--2--xx22-20--|
D|--2--xx22-20--|


The song's actually got two guitars. The octave fill-ins and things
like that has a totally different sound. TFK plays all their songs
(at least in the albums Phenomenon and The Art of Breaking) with
two guitars.


Dani_Boy - 2006-03-25

My mistake! The main riff goes like this:
G|---------------|
D|--2---xx22200--|
A|--2---xx22200--|
D|--2---xx22200--|

It might look strange, but if you listen carefully and tap the
rhythm with your finger against a desk or something you'll hear
that it's the right rhythm.

x = Scratching - Mute strings with your fretting hand to get a cool
"dead" sound. Listen carefully and you'll know how it sounds like.


Add a comment/correction

Complimentary Christian Ringtones
Dadamobile and CGR have teamed up to bring your favorite Christian artists right to your phone. Sign up today and get 10 complementary ringtones!
Tab Country
Did you know CGR has a sister site w/ country guitar tabs? Well we do! Its called Tab Country. It has a great archive with a lot of country tabs.
Rockin Tabs
Are you looking for a site that has rock guitar tabs? Then Rockintabs.com is the place for you. It is a budding site with many rock guitar tabs. Submit your tab today.
Tab Gallery
Tab Gallery has a compilation of christian, rock, and country tabs all in one place. Come visit us.