Guitar Tabs
song title    band name

Join Us Today!

Don't strum alone...
be a part of the largest online Christian music community. Browse thousands of guitar tabs and chat w/ musicians like yourself.


It's Free!

This tab has been rated a 4.67 out of 5 for accuracy. (3 votes)Sorry, but you must be logged in to rate this tab.
Click here to log-in, or you can click here to register.
(Registration is free)

All songs owned by corresponding publishing company. If you make copies of any song on this website, be sure to report your usage to CCLI.
Submitted by: Gods Romance

Inside Outside
Delirious?
World Service

Alright, here's my best try.

intro/verse:
e---------------------------------------------
B----6---6---6-----4-4---4-----7-7---7---7---7
G--6---6---6---6/5-----5---5/6-----6---6---6--
D---------------------------------------------
A---------------------------------------------
E---------------------------------------------
                                                                       
e---------------------------------------------------------
B----6---6---6-----4-4---4-----7-7---7---7---7--7-6-4-4/6-
G--6---6---6---6/5-----5---5/6-----6---6---6--------------
D---------------------------------------------------------
A---------------------------------------------------------
E---------------------------------------------------------


e----6---6---6---6---6---6---6---6--9-8--6---6---6---6---6---------------
B--7---7---7---7---7---6---6---6-----------7---7---7---7---7-6-4-4/6-----

Chorus:

e------------------------------------------------------------------
B----9---9---9---9---9---7---7---7---7---6---6---6---6-------------   
G--6---6---6---6---6---6---6---6---6---6---6---6---6---------------
D------------------------------------------------------------------   (x2)
A------------------------------------------------------------------
E------------------------------------------------------------------

then(at the end of chorus):
e----------------------
B-----7--6--4--4/6-----
G----------------------
D----------------------
A----------------------
E----------------------

Back to intro/verse.

then loud break in song(done with a slide if you know how):

Bb------------F#m

Then the song repeats some parts and slowly drops out. I have displaced 
my World Service album and don't remember every small thing so be graceful
at times. Praise God that you and I GET to play guitar. This song is 
tabbed by Jacob Riddle. Any questions, feel free to ask me online.
email/msn screen name: jake_riddle@hotmail.com
aol: Jacob Riddle
cheers!

Comments about this tab

Sasiita - 2007-08-18

I dont know how to read the tab... =( Please, can somebody help me? I wanna learn how to play the intro. Pleeeaseee.


Add a comment/correction

Complimentary Christian Ringtones
Dadamobile and CGR have teamed up to bring your favorite Christian artists right to your phone. Sign up today and get 10 complementary ringtones!
Tab Country
Did you know CGR has a sister site w/ country guitar tabs? Well we do! Its called Tab Country. It has a great archive with a lot of country tabs.
Rockin Tabs
Are you looking for a site that has rock guitar tabs? Then Rockintabs.com is the place for you. It is a budding site with many rock guitar tabs. Submit your tab today.
Tab Gallery
Tab Gallery has a compilation of christian, rock, and country tabs all in one place. Come visit us.