Guitar Tabs
song title    band name

Join Us Today!

Don't strum alone...
be a part of the largest online Christian music community. Browse thousands of guitar tabs and chat w/ musicians like yourself.


It's Free!

This tab has been rated a 3.80 out of 5 for accuracy. (5 votes)Sorry, but you must be logged in to rate this tab.
Click here to log-in, or you can click here to register.
(Registration is free)

All songs owned by corresponding publishing company. If you make copies of any song on this website, be sure to report your usage to CCLI.
Submitted by: HNpunk228

i was trying to find a good tab for
this song and i couldnt so i made my own,
listen to the song for the rythms,


\,,/ on HN fans

-standard tuning-

Intro
E-------------------------------
b-------------------------------
G------9-9-9------9-9-9-9-9-11--
D-9-9--9-9-9--9-9-9-9-9-9-9-11--    
A-9-9--7-7-7--9-9-7-7-7-7-7-9---          
E-7-7---------7-7---------------
       . .        . .   . .


E---------------------------------
b---------------------------------
G------9-9-9------9-9-9-9-9-11-9~-
D-9-9--9-9-9--9-9-9-9-9-9-9-11-9~-  
A-9-9--7-7-7--9-9-7-7-7-7-7-9--7~-          
E-7-7---------7-7-----------------
       . .        . .   . .

Verse
E---------------------------------
b---------------------------------
G---------6-6-6-6-----------------
D-9-9-9-9-6-6-6-6-6-6-6-6-4-4-4-4-  
A-9-9-9-9-4-4-4-4-6-6-6-6-4-4-4-4-           
E-7-7-7-7---------4-4-4-4-2-2-2-2-    
      .        .       .      .    
E---------------------------------
b---------------------------------
G---------6-6-6-6-----------------
D-9-9-9-9-6-6-6-6-6-6-6-6-4x------  
A-9-9-9-9-4-4-4-4-6-6-6-6-4x------          
E-7-7-7-7---------4-4-4-4-2x------

Pre Chorus
E------------------------------------------------
b------------------------------------------------
G-------------9x-9x-9x-9x------------------------ (x 2)
D-9x-9x-9x-9x-9x-9x-9x-9x-9x-9x-9x-9x-4-4-4-4-4x- 
A-9x-9x-9x-9x-7x-7x-7x-7x-9x-9x-9x-9x-4-4-4-4-4x-          
E-7x-7x-7x-7x-------------7x-7x-7x-7x-2-2-2-2-2x-
                                      . . . .
Chorus
E---------------------------------
b---------------------------------
G---------9-9-9-9-----------------
D-9-9-9-9-9-9-9-9-9-9-9-9-4-4-4-4- 
A-9-9-9-9-7-7-7-7-9-9-9-9-4-4-4-4-          
E-7-7-7-7---------7-7-7-7-2-2-2-2-
    .   .   .   .   .   .   .   .
E---------------------------------
b---------------------------------
G---------9-9-9-9-----------------
D-9-9-9-9-9-9-9-9-9-9-9-9-4x------  
A-9-9-9-9-7-7-7-7-9-9-9-9-4x------          
E-7-7-7-7---------7-7-7-7-2x------
    .   .   .   .   .   .

Intro (x2)

Verse 2
E----------------------------------
b----------------------------------
G---------6------------------------ (x2)
D-9-------6--------6-------4------- 
A-9-(x10)-4-(x10)--6-(x10)-4-(x10)-           
E-7----------------4-------2-------   
  .       .        .       .

Pre-Chorus (x2)

Chorus #2 -the first part has some sort of acoustic solo-
             then guitar it comes in with this-
E-----------------------------------
b-----------------------------------
G----------------9-9-9-9------------
D-4-4-4--9-9-9-9-9-9-9-9-9-9-9-9-4x-  
A-4-4-4--9-9-9-9-7-7-7-7-9-9-9-9-4x-          
E-2-2-2--7-7-7-7---------7-7-7-7-2x-
  . .      .   .   .   .   .   .

Bridge
E--------------------------------------------------
b--------------------------------------------------
G--9x-9x-9x-9x-11x-11x-11x-11x-9x-9x-9x-9x--9x-11x-
D--9x-9x-9x-9x-11x-11x-11x-11x-9x-9x-9x-9x--9x-11x-
A--7x-7x-7x-7x--9x--9x--9x--9x-7x-7x-7x-7x--7x--9x-          
E--------------------------------------------------

Solo- too lazy to figure it out, but it sounds easy

Pre-Chorus

Chorus
      
Bridge

Outro
E---------------------------
b---------------------------
G---7-7-7------6-7----------
D---7-7-7-(x2)-6-7---------- 
A---5-5-5------4-5----------      
E---------------------------
      . .

-peace and good luck

Comments about this tab

mtlmouth - 2005-01-23

Hey, I don't know if this is right or not, but this is what I think the solo is (picked out on a acoustic without a cutaway in standard tuning):
E: 4-8-8-6-6-4-1----------8-6-4-6-8-8-6-6-4--4-4-3-3-4-4-6
B:-----------------4-4--4----------------------------------

E: 4-8-8-6-6-4-1----------8-6-4-6-8-8-6-6-4-6-8-10-11
B:-----------------4-4--4----------------------------

That's my first attempt at tabs, doesn't do justice to this AWESOME song!
-Taylor


hawknelson28 - 2005-03-11

Hey what are the . . . for? do they mean Plum Mute?


krutchfan66 - 2005-04-14

yuppers.its a palm mute.well g2g, bell just rang


jsoccer - 2005-04-17

There is a key change you forgot. This song is in A then to B.
And heres the solo.

e5-5-5-5-----10-10-5-5-5-7-7-7-5-5-5-5-----10-10-5-7-x-12-x-15
b--------7-7-------------9-9-9---------7-7--------------------

Im Going to tri to tab this song


EPaulson - 2005-04-24

Im pretty sure this is the right solo....well it sounded right when i figured it out.....so here you go!

Solo (Medium Distortion)

E/-----------------------------------------------------------------------------
B/-----------------------------------------------------------------------------
G/-17-15-13-------17-15-13-15-17-15-13-1313/12-13-15-13-17-15-13-------------17
D/----------13-11--------------------------------------------------1313-1111---
A/-----------------------------------------------------------------------------
E/-----------------------------------------------------------------------------

Solo (Continued)(Medium Distortion)

E/-----------------------------------
B/-----------------------------------
G/-15-13-15-17-15-13-1313-15b-17b-19b

:o)Ethan!


CRloveSkillet13 - 2005-05-24

I think this is how the solo is played.
G--15b(17)15-13-----------15b(17)15-13-15-15b(17)13vvv-1313-15-1313-1515---
D--------------13-11vvv----------------------------------------------------
solo continued
G--15b(17)15-13---------15b(17)-15-13-15--15b(17)-15-13vvv-15-17-19-20------
D--------------13-11vvv----------------------------------------------------
Please let me know how that is.thank you.ROCK FOR JESUS!!!
,Chris


I Rock 4 Christ - 2006-01-22

QQQQQQQQQWWWWWWWWEEEEEEEEERRRRRRRRRRRRRTTTTTTTTTTTTYYYYYYYYYYYYYUUUUUUUUUUIIIIIIIIIIOOOOOOOOOOOOPPPPPPPPPPAAAAAAAAAAASSSSSSSSSSSSSDDDDDDDDDDDDDFFFFFFFFFFFFFFFGGGGGGGGGGGGGGGHHHHHHHHHHHHHJJJJJJJJJJJJJJJKKKKKKKKKKKKKKKLLLLLLLLLLZZZZZZZZZZZZXXXXXXXXXXXXXXXXCCCCCCCCCCCCCCCVVVVVVVVVVVVBBBBBBBBBBBBBBBNNNNNNNNNNNNNMMMMMMMMMM LOL THIS HAS ABSOLUTLEY NO PURPOSE!!!!!!!!!!!!!!!!!!!!!!!!!!!!!!!!!!!!!!!!


gnarlynarwhal1 - 2006-03-09

your absolutely right... you messed up the tab.


CRloveSkillet13 - 2006-06-16

Who are you guys talking about?


Add a comment/correction

Complimentary Christian Ringtones
Dadamobile and CGR have teamed up to bring your favorite Christian artists right to your phone. Sign up today and get 10 complementary ringtones!
Tab Country
Did you know CGR has a sister site w/ country guitar tabs? Well we do! Its called Tab Country. It has a great archive with a lot of country tabs.
Rockin Tabs
Are you looking for a site that has rock guitar tabs? Then Rockintabs.com is the place for you. It is a budding site with many rock guitar tabs. Submit your tab today.
Tab Gallery
Tab Gallery has a compilation of christian, rock, and country tabs all in one place. Come visit us.