Guitar Tabs
song title    band name

Join Us Today!

Don't strum alone...
be a part of the largest online Christian music community. Browse thousands of guitar tabs and chat w/ musicians like yourself.


It's Free!

This tab has been rated a 2.40 out of 5 for accuracy. (5 votes)Sorry, but you must be logged in to rate this tab.
Click here to log-in, or you can click here to register.
(Registration is free)

All songs owned by corresponding publishing company. If you make copies of any song on this website, be sure to report your usage to CCLI.
Submitted by: random-in-Deed1

Rawkfist
ThousandFootKrutch

Neither of the two tabs already up have the guitar solo at the end, and both 
are missing vital palm muting on both the chorus and verses.  I spent about an 
hour and a half with my guitar fixing this song from top to bottom and also 
watched TFK play it in concert, so I am absolutely possitive that is is right. 
This is an awsome song, and it deserves to be played correctly.  

Tuning:  Drop D (DADG)


Intro:
G--------------------
D----------------2-2-
A----------------2-2-
D----------------2-2-

Verse1:  (Each column of x's indicates one palm-muted strum)
G------xxx----xxxxxxx----xxx----xxxxxxx----xxx----xxxxxxx----xxxx-----
D------xxx----xxxxxxx----xxx----xxxxxxx----xxx----xxxxxxx----xxxx5-4-0
A--5h7-xxx5h7-xxxxxxx5h7-xxx5h7-xxxxxxx5h7-xxx5h7-xxxxxxx5h7-xxxx5-4-0  x2
D------xxx----xxxxxxx----xxx----xxxxxxx----xxx----xxxxxxx----xxxx5-4-0

Chorus:(During the chourus, the strums kind of go with the rhythm. Listen 2 CD) 
G-----------------------------------------------------------
D--9-9-12-12-12-12-7-7-7-7-7---9-9-12-12-12-12-7-7-7-xx5-xx5
A--9-9-12-12-12-12-7-7-7-7-7---9-9-12-12-12-12-7-7-7-xx5-xx5  
D--9-9-12-12-12-12-7-7-7-7-7---9-9-12-12-12-12-7-7-7-xx5-xx5

G-------------------------------------------------------------------
D--9-9-12-12-12-12-7-7-7-7-7---9-9-12-12-12-12-7-7-7-1212121212121212
A--9-9-12-12-12-12-7-7-7-7-7---9-9-12-12-12-12-7-7-7-1212121212121212
D--9-9-12-12-12-12-7-7-7-7-7---9-9-12-12-12-12-7-7-7-1212121212121212

G---------------
D--5-0-2---5-0-7
A--5-0-2---5-0-7
D--5-0-2---5-0-7

Verse2: (Here's where the strumming gets tricky.  Again, the CD tells all.)
G----------------------------------------------xxx4-xxxxx3-xxxx
D--2--2h5p2-2-2--2-2---2h4-5p4-502---2h5p2-2-2-xxx4-xxxxx3-xxxx
A--2--2h5p2-2-2--2-2---2h4-5p4-502---2h5p2-2-2-xxx2-xxxxx1-xxxx
D--2--2h5p2-2-2--2-2---2h4-5p4-502---2h5p2-2-2-xxx--xxxxx--xxxx

G------------------------------------------------xxx4-xxxxx3
D--2--2h5p2-2-2---2--2-2-2h5p2-2--xx2--2h5p2-2-2-xxx4-xxxxx3
A--2--2h5p2-2-2---2--2-2-2h5p2-2--xx2--2h5p2-2-2-xxx2-xxxxx1
D--2--2h5p2-2-2---2--2-2-2h5p2-2--xx2--2h5p2-2-2-xxx--xxxxx-

(Yes, you do have to hammer with your pinky)

Verse1: (With one change.  First time through at the end (5-4-0), either put a 
         trembling effect on them or just palm mute instead.  Second time 
         through is as written)

Chorus

Verse2

Bridge:

G-------------
D--2-2--------
A--2-2--------  x4
D--2-2--------

Solo: (Even though you haven't strummed the D, hammer 2 hard enough it to ring)
G----------------------------
D----------------------------
A--0--------0--------0-------
D---h2-5p2---h2-5p2---h2-5p2-

Coda:
G--
D--2--2h5p2-2-2--2-2-
A--2--2h5p2-2-2--2-2-
D--2--2h5p2-2-2--2-2-

Enjoy this awsome song.  Peace out.
random-in-Deed1



Comments about this tab

Mordae Conanore - 2004-08-03

Dude, you rock. You should play in a band or something. You could grow a fro, and then get a really tall lead singer. That would be awesome.

(PS. Random InDeedl? You may want to fix that)


random-in-Deed1 - 2004-08-05

That's a 1 (one)


DecentKristian - 2004-08-08

Nice Tab....5.0 or verry close


pelicanman - 2005-02-09

This is gonna sound stupid but im a biginer so bear with me. What do the xxxx and 2h and 5p2 mean?


out_of_the_red - 2005-03-05

hey pelican bro, its cool man, i was once a beginner
the xxxx's mean that you have a palm mute, and the 5h7 would mean to hammer from the 5th fret to the 7th fret, also 7p5 means to pull off from the 7th fret to the 5th fret...if you have any more questions just email me at cbscheller@sbcglobal.net


out_of_the_red - 2005-03-05

the 5h7 and 7p5 were examples, thats not what you do in this song lol...dont worry im not THAT stupid


PlAy4hIm92 - 2005-03-21

The solo i think it sound right like this and the rest is the same

5p2 5p2
5p2 5p2
5p2 5p2


Dani_Boy - 2006-04-06

Most of your tab is pretty good. Somewhere at 3.8, closer to 4 I'd say. But then you mess up the chorus completely, so I'll rate a 3. The chorus only uses chords on the 2nd fret, loose chords, 7th fret and 10th fret. Overall the tab is pretty good. But you forgot the Lead Guitar completely too.


Add a comment/correction

Complimentary Christian Ringtones
Dadamobile and CGR have teamed up to bring your favorite Christian artists right to your phone. Sign up today and get 10 complementary ringtones!
Tab Country
Did you know CGR has a sister site w/ country guitar tabs? Well we do! Its called Tab Country. It has a great archive with a lot of country tabs.
Rockin Tabs
Are you looking for a site that has rock guitar tabs? Then Rockintabs.com is the place for you. It is a budding site with many rock guitar tabs. Submit your tab today.
Tab Gallery
Tab Gallery has a compilation of christian, rock, and country tabs all in one place. Come visit us.