Guitar Tabs
song title    band name

Join Us Today!

Don't strum alone...
be a part of the largest online Christian music community. Browse thousands of guitar tabs and chat w/ musicians like yourself.


It's Free!

This tab has been rated a 4.61 out of 5 for accuracy. (33 votes)Sorry, but you must be logged in to rate this tab.
Click here to log-in, or you can click here to register.
(Registration is free)

All songs owned by corresponding publishing company. If you make copies of any song on this website, be sure to report your usage to CCLI.
Submitted by: ascension

--------------------------------------------------------------------------------
                        Hawk Nelson - Every Little Thing
--------------------------------------------------------------------------------

Hey everyone!  I finally finished this tab.......it took forever.  I think I 
have the whole song correct.  It sounds right at least.  Hope you enjoy and give
some input if you want.  Thanks!

Tabbed by: Ascension
Written by: Hawk Nelson
copyright 2004
tooth and nail records

/ - slide

Standard Tuning

Intro 1 (Medium Distortion)

E/------------------------------------------------------
B/------------------------------------------------------
G/------------------------------------------------------
D/-----13--15--13----13--15--1713----13--15--13-13-15-
A/---131113131311--13111313131511--131113131311-11-13-
E/---11--11--11----11--11--11------11--11--11---------

Verse 1 (Medium Distortion)

E/------------------------------------------------------------------------------
B/------------------------------------------------------------------------------
G/------------------------------------------------------------------------------
D/-------------------------------------11111-88---------------------------------
A/-66666-66--6-88888-88--8-33333-33--3-11111-66-66666-66--66-88888-88--88-33333-
E/-44444-44--4-66666-66--6-11111-11--1----------44444-44--44-66666-66--66-11111-

Verse 1 (Continued)(Medium Distortion)

E/---------------
B/---------------
G/---------------
D/-------1---8-8-
A/33--33-1---6-6-
E/11--11---------

Prechorus 1 (Medium Distortion)

E/-----------------------------------------------------------------
B/-----------------------------------------------------------------
G/----------------------------------------------------------------- Choke all
D/---------6-6-6-6---------11111111---------6-6-6-6---------111111- except 1
A/-6-6-6-6-4-4-4-4-6-6-6-6-11111111-6-6-6-6-4-4-4-4-6-6-6-6-111111-        1
E/-4-4-4-4---------4-4-4-4----------4-4-4-4---------4-4-4-4--------

Chorus 1 (Medium Distortion)

E/-----------------------------------------------------
B/-----------------------------------------------------
G/-----------------------------------------------------
D/--------6-6666--------8-8888--------6-6666--------1--
A/-6-6666-4-4444-6-6666-6-6666-6-6666-4-4444-6-6666-1--
E/-4-4444--------4-4444--------4-4444--------4-4444----

Before Verse 2 (Medium Distortion)

E/--------------------------------------------------------------
B/--------------------------------------------------------------
G/--------------------------------------------------------------
D/-----13--15--13----13--15--1713----13--15--13----13--15--1713-
A/---131113131311--13111313131511--131113131311--13111313131511-
E/---11--11--11----11--11--11------11--11--11----11--11--11-----

Verse 2 (Medium Distortion)

E/---------------------------------------------
B/--------------------------------------------- Repeat 2 times.
G/--------------------------------------------- Palm Mute.  
D/-------------------------------111111111-1-1- Listen to song for the beat of
A/-666666666-888888888-333333333-111111111-1-1- verse.
E/-444444444-666666666-111111111---------------

Chorus 2 (Medium Distortion)

E/-----------------------------------------------------
B/-----------------------------------------------------
G/-----------------------------------------------------
D/--------6-6666--------8-8888--------6-6666--------1--
A/-6-6666-4-4444-6-6666-6-6666-6-6666-4-4444-6-6666-1--
E/-4-4444--------4-4444--------4-4444--------4-4444----

Bridge 1 (Medium Distortion)

E/---------------------------------
B/---------------------------------
G/---------------------------------
D/---------8-8-8-8----------6---66-
A/-6-6-6-6-6-6-6-6-6-6-6-6--4-6-44-
E/-4-4-4-4---------4-4-4-4----4----

Solo (Medium Distortion)

E/-----------------------------------------------------------------------------
B/-----------------------------------------------------------------------------
G/-17-15-13-------17-15-13-15-17-15-13-131313/12-13-15-13-17-15-13-----------17
D/----------13-11--------------------------------------------------1313-1111---
A/-----------------------------------------------------------------------------
E/-----------------------------------------------------------------------------

Solo (Continued)(Medium Distortion)

E/-----------------------------------
B/-----------------------------------
G/-15-13-15-17-15-13-1313-15b-17b-19b
D/-----------------------------------
A/-----------------------------------
E/-----------------------------------

Pre-Chorus 3(Medium Distortion)

E/----------------------------------
B/----------------------------------  Palm Mute all.  On 1 slowly work out of
G/----------------------------------                     1  palm mute.
D/---------6-6-6-6---------11111111-
A/-6-6-6-6-4-4-4-4-6-6-6-6-11111111-  
E/-4-4-4-4---------4-4-4-4----------

Pre-Chorus 3 (Continued) (Medium Distortion)

E/--------------------------------
B/--------------------------------
G/--------------------------------
D/--------666666---------11111111-
A/-666666-444444-6666666-11111111-
E/-444444--------4444444----------

Chorus 3 (Higher Key) (Medium Distortion)

E/----------------------------------  On the A and the D string the 8 and 10 are
B/----------------------------------  played together it just looks weird.
G/------------------------------------------------------------
D/--------8-8888----------10-10101010---------8-8888--------3-
A/-8-8888-6-6666---88-8-8-8 -8 8 8 8 --8-8888-6-6666-8-8888-3-
E/-6-6666----------66-6-6--------------6-6666--------6-6666---

Ending (Medium Distortion)

E/------------------------------------------
B/------------------------------------------
G/---------------------------------------14-   The ending is pretty tough...if
D/---------10-10-10-10----------8--------12-   its not it..its really close.
A/-8-8-8-8-8 -8 -8 -8 -8-8-8-8--6--10-10----   
E/-6-6-6-6-------------6-6-6-6-----8 -8 ----

Thanks everyone.  I hope you enjoy this!  Finally a Every Little Thing Tab! 
Please Listen to the CD for the beat and tempo because im pretty sure that the 
chords are right.  Thanks again!

God Bless,
Ascension

Comments about this tab

ascension - 2004-08-02

Will someone please tell me what they think of this tab or if anyone thinks they have a different way please tell or rate the song.

Ascension


ascension - 2004-08-13

Will someone please leave a comment.... I really need to know how I did and how I can do better on future tabs...thanks!


ascension - 2004-08-14

Is this confusing? Is the ending correct?


smallfry7778 - 2004-08-14

hey this is a good tab its sounds right to me i use it to play the song with my band so ya


ascension - 2004-08-14

Thanks a lot smallfry! Glad its of use to you! Anyone else?


RcKn'Rll247 - 2004-08-15

Yeah, You did an awesome job @ tabing this song out, and just for the record i use it to play this song with my band too...


ascension - 2004-08-15

Thanks! I tabbed it out for myself to use w/ my band. I also tabbed Someone Else Before! Check it out...should be posted by now.


WWJD-4-U? - 2004-08-26

GJ ascention. this song rocks, and it sound fine 2 me. So keep it coming.


jimbo lovejoy - 2004-09-10

Hey im only 13, but i think it sounds good. i dont know if you do relient k tabs but consider trying some of the songs that arent accurate.


happyhotdogs - 2004-09-27

this tab sounds great but i like playin it in Drop D. its not as acurate but its easier and it still sounds good plus i have only heard the song on the radio


RcKn'Rll247 - 2004-09-28

hawk nelson plays in either drop d or c# i dont know which one it is but it's one of those two so figure it out for urself or go and see them in concer, im going on oct. 10... i say just use whatever sounds good to you....k...aloha and keep rockin for christ


JJ2004 - 2004-10-13

we want better chords for this song.!!!!


any way, later


krutchfan66 - 2004-10-15

Woo Hoo! Holy Crap, Man


ascension - 2004-10-15

For intro or whatever it probably should be played this way.

E|-------------------------------------------------
B|-------------------------------------------------
G|-------------------------------------------------
D|-------------------------------------------------
A|---11--13--11---11--13--15-11---11--13--11-11-13-
E|-11--11--11---11--11--11------11--11--11---------


Melissa_Birdie - 2004-10-25

Hey, you did a great job on this tab! 5.0 from me. Keep it up! I would like to see some of the other tabs done with the same great quality shown in this one. I really like this song so it's nice to finally learn how to play it. Thanks again and God Bless!


lady6stringzz - 2004-10-30

Hey awesome job on the tab, but I think on the into when you play the e string on the A string you do a pull off and a slide, mayby im wrong, but i think this might make the transitions easier

A ---------------11---13-----15p13s11
E----11-11-11-11----11---11----------

God Bless <==><


lady6stringzz - 2004-10-30

sorry not e, i mean 15th frett

Jesus loves you!


guitarist4God10 - 2004-11-18

This tab isn't 100% but, you did a GREAT job tabing it!

thanks,


stratocasterman - 2004-11-20

ummmmmmmmmmmmmm what does choke mean??????????


ghettogeopetto - 2004-11-28

is there a second guitar going on at the beginning of this song? I think it's there if you really listen to this, and i would like to play this song with two guitars.....of course, i may just be being a goat, but tell me what you think


black_guitarist - 2004-11-30

I totally agree. In most of their songs, it seems like if there is two guitars playing at the same time.


rj51fan - 2004-12-15

Hey Dude.GReat job on this!!!!i love this song and you hit the nail on the head w/this tab!!great job and ill look for more tabs from you.REmember,our guitar tallent comes from God and don't forget to thank him for it!


kevin 987654321 - 2004-12-20

this tab rocks and i checked out SOmeelse Before that was very good


tfk_rawks23 - 2005-01-03

This tab was done very well! can you tab last words by tfk? thanks
Chels


Awanabecop - 2005-01-04

first of all this song is in drop C#!!! that's a start!!!


rockin_4_Christ - 2005-01-14

Awsome tab!


hawknelson28 - 2005-01-15

hey could someone tab up right here i'm trying but i dont think its going so good lol thankx god bless.


rock4christ08 - 2005-01-25

i give ya props foo. great tab!!! -ray


Emery37 - 2005-02-04

good job man... thats really all i can say. i need to learn how to tab too.


JesusFreak492 - 2005-02-18

This is a totally awesome tab! It is accurate and is just like Hawk Nelson plays it. Keep it up! And keep rocking for Jesus Christ! Peace out yo.


c2gn - 2005-02-27

I talked to Jonathan of Hawk Nelson last night at the concert in Minneapolis and he informed me that they play everything in drop C# tunning. Just thought I'd mention that to be helpful to all.


rockin_4_Christ - 2005-03-04

hey, umm i am new at this so how do u tune it to drop C#????? i am still confused on all the different types of tunings so if someone could help me out i would appreciate it


JesusFreak492 - 2005-03-09

ya hawk nelson plays it in drop c, i agree;
it is ok if u dont but it is more accurate and sounds better. peace out yo
-jesusfreak492


Alextx89 - 2005-03-10

drop C# is the same as drop Db so it is: Db-Ab-Db-Gb-Bb-Eb or its
C#-G#-C#-F#-A#-D#, either way, they're both the same, and all power chords wud b played continuous fret, so its like
7 6
7 not 4


JesusFreak492 - 2005-03-24

oh how do i register my tabs on this website??


JesusFreak492 - 2005-03-24

never mind


JF77 - 2005-04-27

Wow, this tab ROCKS!!!! its like one of the most accurate tabs ive gotten off here. Keep up the Good Work!


$Tay@Lavigne$ - 2005-05-01

can someone tell me the rythm part for the intro and first verse I would like to play this with my band

by the way this tab is awesome is it your first one


CRloveSkillet13 - 2005-05-24

Great job.This is an awesome tab!


krutchfan66 - 2005-09-07

its friggin a sweet dude


kylesnomean - 2005-12-13

Great Tab!


I Rock 4 Christ - 2006-01-09

My band and i LOVE this song so i printed this out and we learnt it, it sounds great when we all play it so ty


zero91 - 2006-01-24

it sounds good to me.nice tab!


gnarlynarwhal1 - 2006-03-09

i think the intro should be like this but other than that it sounds great:
E/--------------------------------
B/--------------------------------
G/--------------------------------
D/--6-8-6----6-8-10---------------
A/-6-------6----------------------
E/--------------------------------


cheese boy - 2006-04-20

hey man i love hawk nelson......and i love this tab its friggen awsome. and hey i just wanted 2 say 2 whoever it was that said it but it is true god is the 1 that gave us r gifts and i stongly belive thhat guitar is one.thatks man.


Hawk_Nelson89 - 2006-04-24

Hey man great tab, but on the intro and the repats on the intro instead of doing power chords just do one string hitting 11 e then a then e and so on it makes it aolt easier to play and it sounds great!


Xo PePpEr NoSe - 2006-12-30

no no no... not right... -emily-


Xo PePpEr NoSe - 2006-12-30

this is the intro:
E|----------------
D|----------------
G|-----2--4----2--
D|---2---2---2---2
A|-0--------------
E|----------------

E|----------------
D|-------------2--
G|-----2--4------2
D|---2---2---2----
A|-0--------------
E|----------------


thejesusfreak36 - 2008-01-09

AWESOME JOB!! I could have never done it this good!

God bless you


burningbushexp - 2008-03-22

whats with the arguing over the intro ... if the song sounds good leave it alone duh


Add a comment/correction

Complimentary Christian Ringtones
Dadamobile and CGR have teamed up to bring your favorite Christian artists right to your phone. Sign up today and get 10 complementary ringtones!
Tab Country
Did you know CGR has a sister site w/ country guitar tabs? Well we do! Its called Tab Country. It has a great archive with a lot of country tabs.
Rockin Tabs
Are you looking for a site that has rock guitar tabs? Then Rockintabs.com is the place for you. It is a budding site with many rock guitar tabs. Submit your tab today.
Tab Gallery
Tab Gallery has a compilation of christian, rock, and country tabs all in one place. Come visit us.