Guitar Tabs
song title    band name

Join Us Today!

Don't strum alone...
be a part of the largest online Christian music community. Browse thousands of guitar tabs and chat w/ musicians like yourself.


It's Free!

This tab has been rated a 4.13 out of 5 for accuracy. (8 votes)Sorry, but you must be logged in to rate this tab.
Click here to log-in, or you can click here to register.
(Registration is free)

All songs owned by corresponding publishing company. If you make copies of any song on this website, be sure to report your usage to CCLI.
Submitted by: p2008j

ARTIST: Dead Poetic
TITLE:  New Medicines
TABBER:	Patrick Ray (P2008J@yahoo.com)
ALBUM:  New Medicines

Dropped D tuning (D A D G B e)


h = hammer-on, p = pull-off, x = muted note, / = slide

Intro (Phaser set really fast, palm muted).

e|-------------------------------------------------------------------------|
B|-------------------------------------------------------------------------|
G|---------9----------------9------------------9------------------9--------|
D|-----9-------11-------9-------11---------9-------11---------9-------11---|
A|-9-9---9---9----9-9-9---9---9----9---------9---9----9---------9---9----9-|
D|-----------------------------------11-11--------------11-11--------------|

Verse

e|------------------------------------------------|
B|------------------------------------------------|
G|-----------------9-9-9-------4-4-4-------4-4-4--|
D|--4-4-4-4--4-4-4-x-x-x-0-0-0-x-x-x-0-0-0-x-x-x--|
A|--4-4-4-4--4-4-4-7-7-7-0-0-0-2-2-2-0-0-0-2-2-2--|
D|--4-4-4-4--4-4-4-------0-0-0-------0-0-0--------|

Chorus (light distortion)

e|-------------------------------------|
B|-------------------------------------|
G|-------------6--6-6--9--9-9--6--6-6--|
D|--11--11-11--4--4-4--0--0-0--4--4-4--|
A|---9---9--9--4--4-4--0--0-0--4--4-4--|
D|---9---9--9--4--4-4--0--0-0--4--4-4--|

1st Bridge

e|-------------------------------------------------------------|
B|-------------------------------------------------------------|
G|--6-6--6-6-6--6-6-6--6-6-6-4-4-6-6--6-6-6--6-6-6--6-6-6-6-6--|
D|--4-4--4-4-4--4-4-4--4-4-4-2-2-0-0--0-0-0--0-0-0--0-0-0-0-0--|
A|--4-4--4-4-4--4-4-4--4-4-4-2-2-0-0--0-0-0--0-0-0--0-0-0-0-0--|
D|--4-4--4-4-4--4-4-4--4-4-4-2-2-0-0--0-0-0--0-0-0--0-0-0-0-0--|

Chorus (Heavy)

e|----------------------------------------------------------------|
B|----------------------------------------------------------------|
G|--------------------11-------9---9--9--9---9---6---6--6--6---6--|
D|--11--11-11-11--11---x-(x8)--7---7--7--7---7---4---4--4--4---4--|
A|---9---9--9--9---9---9-------7---7--7--7---7---4---4--4--4---4--|
D|---9---9--9--9---9-----------7---7--7--7---7---4---4--4--4---4--|

Chorus Fill

e|--9----9-9--9/7---/12--------|
B|-----------------------10/7--|
G|-----------------------------|
D|-----------------------------|
A|-----------------------------|
D|-----------------------------|

2nd Bridge

e|---------------------------------------------------------------|
B|---------------------------------------------------------------|
G|--------9-9-9-------7-6-6-------11p9--------------11p9---------|
D|--4-4-4-x-x-x-4-4-4-x-x-x-0-0-0------11p9---0-0-0------11p9----|
A|--4-4-4-7-7-7-4-4-4-5-4-4-0-0-0-----------9-0-0-0-----------9--|
D|--4-4-4-------4-4-4-------0-0-0-------------0-0-0--------------|

Song Order:

Intro		x1 (Guitar 2 plays this part).
Verse		x4
Light Chorus	x2
First Bridge	x4
Heavy Chorus	x4
Verse		x3 (Guitar 2 plays the intro again whilst this goes on).
First Bridge	x2
Heavy Chorus	x4 (Guitar 2 plays the chorus fill here).
Second Bridge	x4
Heavy Chorus	x4
First Bridge	   (Song fades out, keep repeating this until it does).

Comments about this tab

guitar_chik - 2004-08-07

Actually, in the verse, instead of

e----------------------
B----------------------
G-----9-9-9------------
D-----x-x-x------------
A-----7-7-7------------
D----------------------

I play:

e------------------------
B------------------------
G-----11-11-11-----------
D------x--x--x-----------
A------9--9--9-----------
D------------------------

and for the Chorus Fill I play:

e--9--9-9/7-7/12-12-----------
B------------------9/10-10/7-7
G-----------------------------
D-----------------------------
A-----------------------------
D-----------------------------


fallingup212 - 2007-02-27

Good Tab. Sounds Great.


Add a comment/correction

Complimentary Christian Ringtones
Dadamobile and CGR have teamed up to bring your favorite Christian artists right to your phone. Sign up today and get 10 complementary ringtones!
Tab Country
Did you know CGR has a sister site w/ country guitar tabs? Well we do! Its called Tab Country. It has a great archive with a lot of country tabs.
Rockin Tabs
Are you looking for a site that has rock guitar tabs? Then Rockintabs.com is the place for you. It is a budding site with many rock guitar tabs. Submit your tab today.
Tab Gallery
Tab Gallery has a compilation of christian, rock, and country tabs all in one place. Come visit us.