Guitar Tabs
song title    band name

Join Us Today!

Don't strum alone...
be a part of the largest online Christian music community. Browse thousands of guitar tabs and chat w/ musicians like yourself.


It's Free!

This tab has been rated a 2.75 out of 5 for accuracy. (4 votes)Sorry, but you must be logged in to rate this tab.
Click here to log-in, or you can click here to register.
(Registration is free)

All songs owned by corresponding publishing company. If you make copies of any song on this website, be sure to report your usage to CCLI.
Submitted by: ariaman

Song: Follow You Down
Artist: Blindside
c2004 Elektra Records
Tabbed by: Trevor Kirch

Drop D tuning

I wasn't able to figure out the intro or the solo/bridge,
but here's the verses, pre-chorus and chorus.

Verses

G--6--
D--x--
A--4--palm-muted
D-----

Pre-Chorus:

G--6-----------6--2--
D--6--7--2--4--x--x--
A--4--7--2--4--4--0--
D-----7--2--4--------

Chorus

G--4-----
D--4--0--
A--2--0--X3
D-----0--

That's all I'm able to figure out. Hope it gets someone else started.

Comments about this tab

ariaman - 2004-09-01

original tabber here, with a ton of corrections. First, this song is actually in Drop Db tuning. Here's the correct version.

Intro

Gb------------7-10-9-----------7-10-6-7-
Db--0-3-0-3-0-x-x--x-0-3-0-3-0-x-x--x-x-
Ab--0-3-0-3-0-5-8--7-0-3-0-3-0-5-8--4-5-
Db--0-3-0-3-0--------0-3-0-3-0----------

Verse

Gb--7--
Db--x--
Ab--5--
Db-----

Pre-Chorus

Gb--7-----------7--3--
Db--7--8--3--5--x--x--
Ab--5--8--3--5--5--1--
Db-----8--3--5--------

Chorus

Gb--5-----
Db--5--1--
Ab--3--1--
Db-----1--

and someone else will have to get the bridge figured out, that's the best I can do. Have fun.


AMdeluxFAtStrat - 2004-11-23

Nice job on the tab above..its fairly accurate. The bridge is simple and goes like this..

Ab----13-15-12---14---13---15-17-12---9---8---11-11---11-11---11-11---11-11--
Db--0----------0----0----0----------0---0---0-------0-------0-------0-------0

Plays through 3x. Hope that helps


Adam K - 2004-12-22

The Intro goes like this

Gb------------7-10-9-6-----------7-10-6-7-
Db--0-3-0-5-0-x-x--x-x-0-3-0-5-0-x-x--x-x-
Ab--0-3-0-5-0-5-8--7-4-0-3-0-5-0-5-8--4-5-
Db--0-3-0-5-0----------0-3-0-5-0----------


ariaman - 2004-12-27

I deciphered your version of the bridge, AMdeluxFAtStrat. Here it is.

Gb----15-17-14---16---15---17-19-14---11-10-----13-13---13-13---13-13----
Db--0--x--x--x-0--x-0--x-0--x--x--x-0-x-0-x-0-0--x--x-0--x--x-0--x--x-0--
Ab--0-13-15-12-0-14-0-13-0-15-17-12-0-9-0-8-0-0-11-11-0-11-11-0-11-11-0--
Db--0----------0----0----0----------0---0---0-0-------0-------0-------0--


ariaman - 2004-12-27

geez, it messed that up too. Here i go again...

Gb----15-17-14---16---15---17-19-14---11-10-----13-13---13-13---13-13----
Db--0--x--x--x-0--x-0--x-0--x--x--x-0-x-0-x-0-0--x--x-0--x--x-0--x--x-0--
Ab--0-13-15-12-0-14-0-13-0-15-17-12-0-9-0-8-0-0-11-11-0-11-11-0-11-11-0--
Db--0----------0----0----0----------0---0---0-0-------0-------0-------0--


ariaman - 2004-12-27

oh my gosh...something is horribly wrong here...you'll have to just copy
and paste it to figure it out. Sorry.


Add a comment/correction

Complimentary Christian Ringtones
Dadamobile and CGR have teamed up to bring your favorite Christian artists right to your phone. Sign up today and get 10 complementary ringtones!
Tab Country
Did you know CGR has a sister site w/ country guitar tabs? Well we do! Its called Tab Country. It has a great archive with a lot of country tabs.
Rockin Tabs
Are you looking for a site that has rock guitar tabs? Then Rockintabs.com is the place for you. It is a budding site with many rock guitar tabs. Submit your tab today.
Tab Gallery
Tab Gallery has a compilation of christian, rock, and country tabs all in one place. Come visit us.