Guitar Tabs
song title    band name

Join Us Today!

Don't strum alone...
be a part of the largest online Christian music community. Browse thousands of guitar tabs and chat w/ musicians like yourself.


It's Free!

This tab has been rated a 3.33 out of 5 for accuracy. (3 votes)Sorry, but you must be logged in to rate this tab.
Click here to log-in, or you can click here to register.
(Registration is free)

All songs owned by corresponding publishing company. If you make copies of any song on this website, be sure to report your usage to CCLI.
Submitted by: charres

My Glorious
Delirious


Tab by Charles Hyun

Standard Tuning


This is the tab for the solo.  The solo should be played with a slide,
preferably steel or brass for more sustain.  Be sure to add vibrato while
holding the notes, or the solo will sound very bland.  Add heavy distortion 
and a hint of delay.


 / = slide up     \ = slide down


E--------------------------------------|--------------------------------------|
B-/14--------------14---/12----------/-|-17------/17-----------/14--\12-------|
G-/14---/14--14------------------------|--------------------------------------|
D--------------------------------------|--------------------------------------|
A--------------------------------------|--------------------------------------|
E--------------------------------------|--------------------------------------|

 Pick every note and pick the string as you are sliding into a note.  

E-----------------------------/12------|-\9-/12--/14--------/12--/16-16-------|
B------14------14----/12---------------|--------------------------------------|
G-/14------14--------------------------|--------------------------------------|
D-/14----------------------------------|--------------------------------------|
A--------------------------------------|--------------------------------------|
E--------------------------------------|--------------------------------------|

Comments about this tab

sundried - 2005-06-20

this is allright I have nothing against it


guitarplayer67 - 2005-11-10

this is awsome. thanks


Add a comment/correction

Complimentary Christian Ringtones
Dadamobile and CGR have teamed up to bring your favorite Christian artists right to your phone. Sign up today and get 10 complementary ringtones!
Tab Country
Did you know CGR has a sister site w/ country guitar tabs? Well we do! Its called Tab Country. It has a great archive with a lot of country tabs.
Rockin Tabs
Are you looking for a site that has rock guitar tabs? Then Rockintabs.com is the place for you. It is a budding site with many rock guitar tabs. Submit your tab today.
Tab Gallery
Tab Gallery has a compilation of christian, rock, and country tabs all in one place. Come visit us.