Guitar Tabs
song title    band name

Join Us Today!

Don't strum alone...
be a part of the largest online Christian music community. Browse thousands of guitar tabs and chat w/ musicians like yourself.


It's Free!

This tab has been rated a 4.60 out of 5 for accuracy. (10 votes)Sorry, but you must be logged in to rate this tab.
Click here to log-in, or you can click here to register.
(Registration is free)

All songs owned by corresponding publishing company. If you make copies of any song on this website, be sure to report your usage to CCLI.
Submitted by: ˝InRelease

Artist:Spoken 
Song:Promise
Album:A Moment of Imperfect Clarity

This is a great song.. Here it is.. 
Hope you'll like it..

Tuning : EADGbe

Intro
e------------------------------------------------
b------------------------------------------------
G------------------------------------------------
D-----------4------------4-----------------------
A---6--4--6---6--6--4--6---6--2-2-2-2-2-2--------
E------------------------------------------------x3
The fourth time it goes.
G---------------------------------44--------------
D-----------4------------4----444-44--------------
A---6--4--6---6--6--4--6---6--222-22--------------
E-------------------------------------------------

Verse
e-------------------------------------------------------------------
b----------------6--------------------------6-----------------------
G----------------6--------------------------6-----------------------
D-----------4--------------------------4---------4-4-4-4-4-4--------
A---6--4--6---6----------------6--4--6---6-------2-2-2-2-2-2--------
E-------------------------------------------------------------------x4

Chorus
G-----------------------
D----6--------8-------4-
A----4--------6-------2-
E-----------------------x4


Thats's about it.. Email me, and tell me what you think.
Thefreakzhow@ofir.dk

Comments about this tab

Gustin - 2004-10-17

good tab.... a couple things though... on the second verse there is no

------------
-----4444---
-----2222---
------------
until the very end

also an easier way to play the intro would be instead of playing the 2 on that string play it as

e------------------------------------------------
b------------------------------------------------
G------------------------------------------------
D-----------4------------4-----------------------
A---6--4--6---6--6--4--6---6---------------------
E-----------------------------7-7-7-7-7-7--------

that one you dont hafta move your hand just the fingers


lilsk8rboi411 - 2004-12-16

awesome job!! does anyone know how the bridge goes??someone put a world away on here!!lol


hawknelson28 - 2005-02-13

Hey i think the intro is Plum muted dont you guys think?


jt16935 - 2005-03-28

How do you "plum" mute???lol thats palm mute sparky!!!!!!!!


4Glory - 2005-04-14

Bridge, try alternating from a E power chord 0220XX to a C powerchord, X355XX
in succession.


gojets16 - 2005-04-20

Very good, nice job. I agree, the 7th fret on the E string is MUCH easier. But good job anyways.


chrishollis - 2005-07-11

on the bridge the song is played in drop d but the bridge is the only place it matters so the bridge would be 1st fret 111xxx then x244xx at least thats the way i play it lol


EpyonZERO - 2006-03-16

You could also play it half step down drop d, and play the intro on the low C# like 20252. It's basically the same, just diff tuning; great tab.


chabassplaya - 2006-06-21

Perfect. This song sounds great acoustic too.


joshtherocker - 2006-08-07

the intro is palm muted for sure.


massi107 - 2006-10-09

The CHorus Doesn't sound right


Add a comment/correction

Complimentary Christian Ringtones
Dadamobile and CGR have teamed up to bring your favorite Christian artists right to your phone. Sign up today and get 10 complementary ringtones!
Tab Country
Did you know CGR has a sister site w/ country guitar tabs? Well we do! Its called Tab Country. It has a great archive with a lot of country tabs.
Rockin Tabs
Are you looking for a site that has rock guitar tabs? Then Rockintabs.com is the place for you. It is a budding site with many rock guitar tabs. Submit your tab today.
Tab Gallery
Tab Gallery has a compilation of christian, rock, and country tabs all in one place. Come visit us.