Guitar Tabs
song title    band name

Join Us Today!

Don't strum alone...
be a part of the largest online Christian music community. Browse thousands of guitar tabs and chat w/ musicians like yourself.


It's Free!

This tab has been rated a 5.00 out of 5 for accuracy. (1 vote)Sorry, but you must be logged in to rate this tab.
Click here to log-in, or you can click here to register.
(Registration is free)

All songs owned by corresponding publishing company. If you make copies of any song on this website, be sure to report your usage to CCLI.
Submitted by: willj

supertones
shut up and play
supertones strike back

verse 1/intro(ska rythem without distortion)

E----7----8---------7----
A----8----8----8----8----
G----7----9----8----7----
D--------------8---------

verse 2(ska rythem without distortion)

E----7----5----
A----8----7---
G----7----7----

repeat each chord 8x

repeat eace one of these chords 8x

pre-chorus(with distortion)

D--------------5----7---7---7---7---7-7-7
B----7----9----3----5-0-5-0-5-0-5-0-5-5-5
E----5----7------------------------------

repeat each chord 8x (except last ones)

chorus(with distortion)
                                                                     (16x)
D-------------------------------->->---------------------------------5-7---
B----5-5-5-5-5-5-5-5-5-5-5-5-5-5-5-4-2-2-2-2-2-2-2-2-2-2-2-2-2-2-2-2-3-5---
E----3-3-3-3-3-3-3-3-3-3-3-3-3-3-3-2-0-0-0-0-0-0-0-0-0-0-0-0-0-0-0-0-------

solo(metal distortion)

D------x-x-x-x-x-x---x---x-7-5-x-x-x-x-x-x-9-9-9-7-7-7-4-x-x-x-x-x-x-5
B----5-x-x-x-x-x-x-4-x-5-x-5-3-x-x-x-x-x-x-7-7-7-5-5-5-2-x-x-x-x-x-x-3
E----3-x-x-x-x-x-x-2-x-3-x-----x-x-x-x-x-x---------------x-x-x-x-x-x--


D-x-x-x-x-x-x---x-x-x-x-x-x-x-x-5-x-x-7-----
B-x-x-x-x-x-x-7-x-x-x-x-x-x-x-x-3-x-x-5-----
E-x-x-x-x-x-x-5-x-x-x-x-x-x-x-x---x-x-------

repeat 2x

bridge(with distortion)

D---------------------------x-x-5-x-x-7--
B----5----4-5----4-5----4-5-x-x-3-x-x-5--
E----3----2-3----2-3----2-3-x-x---x-x----

That is it. I got this from my guitar teacher and he pretty much gets 
everything right. I think that this one is more accurate than they other one
and i tabed it out. Questions or corrections email me at 
nextethanluck@yahoo.com, thanx. Jamie say hi to Brad!

Comments about this tab

ska_man26 - 2004-08-10

hey man, the way you tabbed the strings is upside down, the low E should be on the bottom of the tab.


willj - 2004-08-12

oops
are the tabs still correct


Add a comment/correction

Complimentary Christian Ringtones
Dadamobile and CGR have teamed up to bring your favorite Christian artists right to your phone. Sign up today and get 10 complementary ringtones!
Tab Country
Did you know CGR has a sister site w/ country guitar tabs? Well we do! Its called Tab Country. It has a great archive with a lot of country tabs.
Rockin Tabs
Are you looking for a site that has rock guitar tabs? Then Rockintabs.com is the place for you. It is a budding site with many rock guitar tabs. Submit your tab today.
Tab Gallery
Tab Gallery has a compilation of christian, rock, and country tabs all in one place. Come visit us.