Guitar Tabs
song title    band name

Join Us Today!

Don't strum alone...
be a part of the largest online Christian music community. Browse thousands of guitar tabs and chat w/ musicians like yourself.


It's Free!

This tab has not yet been rated for accuracy.Sorry, but you must be logged in to rate this tab.
Click here to log-in, or you can click here to register.
(Registration is free)

All songs owned by corresponding publishing company. If you make copies of any song on this website, be sure to report your usage to CCLI.
Submitted by: jchf6230

The version that was already posted for this doesn't sound like the recording.
This one requires that you tune your guitar specifically using "Lute" tuning.

#----------------------------------PLEASE NOTE---------------------------------#
#This file is the author's own work and represents their interpretation of the #
#song. You may only use this file for private study, scholarship, or research. #
#------------------------------------------------------------------------------##


Tune 4th & 6th down a half step(E A D F# B D#) - 'Once Again - Fusebox'

|-----------------------------2--|
|-----------------------------2--|
|-------------0-------0-------2--|
|-----4-----3---3---3---3---3----|
|---4---4-1-------2-------4------|
|-2------------------------------|X2


|---------------------2---|
|---------------------2---|
|-----------------0---2---|
|---3---3---3---3-1---3---|
|---4---4---4-1---2---4---|
|-0---1---2-----------2---|

 
|-------------------2--------|---------------------------------|
|-------------------2--------|---------------------------------|
|-0--0-0-0-0-0-0-0--2--------|-----0-------0-------0-----------|
|-1--1-1-1-1-1-1-1--3--------|---3---3---3---3---3---3---3---3-|
|-2--2-2-2-2-2-2-2--4--------|-1-------2-------1---------------|
|-2--2-2-2-2-2-2-2--4--------|-------------------------2---1---|

|---------------------------------|
|---------------------------------|
|-----0-------0-------0-------0---|
|---3---3---3---3---3---3---3---3-|
|-1-------2-------1-------4-------|
|---------------------------------|


|-----------------|-----------------|-----------------|-2-
|-----------------|-----------------|-----------------|-2-
|-----0-------0---|-----0-----------|-----0-------0---|-4-
|---3---3---3---3-|---3---3---3---3-|---3---3---3---3-|-4-
|-1-------2-------|-1---------------|-2-------4-------|-4-
|-----------------|---------2---1---|-----------------|-2-

I pretty much know the rest but havenít tabbed it.  Hope this helps someone get going on it.
going on it.

Comments about this tab

No comments/corrections found. Add your own

Complimentary Christian Ringtones
Dadamobile and CGR have teamed up to bring your favorite Christian artists right to your phone. Sign up today and get 10 complementary ringtones!
Tab Country
Did you know CGR has a sister site w/ country guitar tabs? Well we do! Its called Tab Country. It has a great archive with a lot of country tabs.
Rockin Tabs
Are you looking for a site that has rock guitar tabs? Then Rockintabs.com is the place for you. It is a budding site with many rock guitar tabs. Submit your tab today.
Tab Gallery
Tab Gallery has a compilation of christian, rock, and country tabs all in one place. Come visit us.