Guitar Tabs
song title    band name

Join Us Today!

Don't strum alone...
be a part of the largest online Christian music community. Browse thousands of guitar tabs and chat w/ musicians like yourself.


It's Free!

This tab has been rated a 4.47 out of 5 for accuracy. (17 votes)Sorry, but you must be logged in to rate this tab.
Click here to log-in, or you can click here to register.
(Registration is free)

All songs owned by corresponding publishing company. If you make copies of any song on this website, be sure to report your usage to CCLI.
Submitted by: ascension

--------------------------------------------------------------------------------
                         Definately Maybe - FM Static
--------------------------------------------------------------------------------

I made this tab because I found the other tabs on this song unclear and not
complete.  I also found that they seemed to have the bar chords and such but not
when to play them and how often.  I hope this helps.

By: ascension

Verse 1 (Clean)

E----------------------------------
B----------------------------------
G-------1-------1-------1-------2--   Repeat 6 Times
D-----2---2---2---2---2---2---2---2
A-----------0----------------------
E---0---------------0-------2------

Prechorus 1 (Clean)

E-----------------------------------
B-----------------------------------
G-----------4---4---6---6-----------   Repeat 2 Times
D---2---2---4---4---6---6---7---7---
A---2---2---2---2---4---4---7---7---
E---0---0-------------------5---5---

Chorus 1 (With Medium Distortion)

E-------------------------------------------------------------------
B-m-------}---------------------------------------------------------
G--------44-m-666666&6-------------------444d4444-66&66666----------
D---22---44---66666666-77777777-22222222-22222222-66666666-77777777-
A---22---22---44444444-77777777-22222222-22222222-44444444-77777777-
E---00-----------------55555555-00000000-------------------55555555-

Verse 2 (With Medium Distortion)

E------------------------------------------------------------------------
B------------------------------------------------------------------------
G-------44--------------44-------------------------44--------------------
D---22--44--22--77--22--44--4444-9999--22--77--22--44--22--77--4444-9999-
A---22--22--22--77--22--22--4444-9999--22--77--22--22--22--77--4444-9999-
E---00------00--55--00------2222-7777--00--55--00------00--55--2222-7777-

Chorus 2 (With Medium Distortion)

E--------------------------------------------------------------------------
"--------------------------------------------------------------------------
G------------44444444-66666666-------------------44444444-66666666---------
D---22222222-22222222-66666666-77777777-22222222-22222222-44444444-7777777-
A---22222222-22222222-44444444-77777777-22222222-22222222-44444444-7777777-
E---00000000-------------------55555555-00000000-------------------5555555-

Comments about this tab

ascension - 2004-08-14

Prechorus

E|-----------------
B|-----------------
G|-4-4-----6-6-----
D|-4-4-2-2-6-6-7-7- Repeat 2x
A|-2-2-2-2-4-4-7-7-
E|-----0-0-----5-5-


ascension - 2004-08-19

Heres the prechorus i figured it out finally. Scratch the first one!

E|-------------------
B|------------------- Repeat 2x
G|-9-9---------------
D|-9-9-9-9-11-11-7-7-
A|-7-7-9-9- 9- 9-7-7-
E|-----7-7- 9- 9-5-5-


random-in-Deed1 - 2004-09-18

Hey man, you can't spell definitely, but you can tab pretty well. My only problem is the prechorus. I haven't seen anyone do it right, and I know that it is much higher than the chorus riff.


godin_man_scott - 2004-11-20

hey man. solid tabbing. that guy above me doesnt know what he is talking about cuz if he wanted it much higher then he should just use octaves


N2HiMguitar33 - 2004-12-29

these tabs are awesome, i played along with the music and was right on with it.


N2HiMguitar33 - 2004-12-30

another thing, in verse 2 when you play G------------4-4-4-4
D-4-4-4-4-9-9-9-9 D-4-4-4-4-4-4-4-4
A-4-4-4-4-9-9-9-9 A-4-4-4-4-2-2-2-2
E-2-2-2-2-7-7-7-7 i found that its much easier to play E-2-2-2-2----------- instead

Well, thats all i noticed. Great Tabs!


N2HiMguitar33 - 2004-12-30

that last one messed up.the second one is supposed to be

G-4-4-4-4
D-4-4-4-4
A-2-2-2-2

sorry, i hope that helped


rock4christ08 - 2005-01-16

i'm not here to argue, just giving props to you for doing this tab. thanks and god bless.


fmnut - 2005-01-24

Great tab I really wnated to learn how to play this song and I did


FrankdaHunter - 2005-01-29

Not only is this song a great song, but you're tabbing is excellent, right on man, keep playing and fun


Jpizzy - 2005-02-17

Hey very good tab. But I think that they just play bar chords instead of just the first three strings. at least on the chorous they do. so instead of playing
-
-
-
2 Just play a full E. same with the others. tell me if i'm wrong or not
2 But I think it is easyer.
0


Add a comment/correction

Complimentary Christian Ringtones
Dadamobile and CGR have teamed up to bring your favorite Christian artists right to your phone. Sign up today and get 10 complementary ringtones!
Tab Country
Did you know CGR has a sister site w/ country guitar tabs? Well we do! Its called Tab Country. It has a great archive with a lot of country tabs.
Rockin Tabs
Are you looking for a site that has rock guitar tabs? Then Rockintabs.com is the place for you. It is a budding site with many rock guitar tabs. Submit your tab today.
Tab Gallery
Tab Gallery has a compilation of christian, rock, and country tabs all in one place. Come visit us.