Guitar Tabs
song title    band name

Join Us Today!

Don't strum alone...
be a part of the largest online Christian music community. Browse thousands of guitar tabs and chat w/ musicians like yourself.


It's Free!

This tab has been rated a 1.67 out of 5 for accuracy. (3 votes)Sorry, but you must be logged in to rate this tab.
Click here to log-in, or you can click here to register.
(Registration is free)

All songs owned by corresponding publishing company. If you make copies of any song on this website, be sure to report your usage to CCLI.
Submitted by: forgotten few

Relient K
C.U.R.B.

Tuning - Standard; eBGDAE
(x = palm mute)

This is a song from one of relient K's EP's...not sure which one...

Intro

Rhythm:
e|----------------------------------------------------
B|----------------------------------------------------
G|----------------------------------------------------
D|-99-9--999-9--22-2--222-2--66-6--666-6--44-4--444-4-
A|-99-9--999-9--22-2--222-2--66-6--666-6--44-4--444-4-
E|-77-7--777-7--00-0--000-0--44-4--444-4--22-2--222-2-
   xx    xxx    xx    xxx    xx    xxx    xx    xxx

Lead:
e|-----------------------------------------------------------------------
B|-----------------------------------------------------------------------
G|-444-6-8-9-8-6-4444--4-6-8-9-11-11-11--4-6-8-9-8-6-4444--4-6-8-9-8-6-4-
D|-----------------------------------------------------------let ring^---
A|-----------------------------------------------------------------------
E|-----------------------------------------------------------------------

Verse:

Rhythm - same as Intro
Lead - none

Chorus:

Rhythm:
e|--------------------------------------------------------------------
B|--------------------------------------------------------------------
G|--------------------------------------------------------------------
D|-9-9-9-9-9-9-9-9--2-2-2-2-2-2-2-2--6-6-6-6-6-6-6-6--4-4-4-4-4-4-4-4-
A|-9-9-9-9-9-9-9-9--2-2-2-2-2-2-2-2--6-6-6-6-6-6-6-6--4-4-4-4-4-4-4-4-
E|-7-7-7-7-7-7-7-7--0-0-0-0-0-0-0-0--4-4-4-4-4-4-4-4--2-2-2-2-2-2-2-2-

repeat Intro

Verse 2:

Rythm - same as Verse 1
Lead - not entirely sure, but i think it sounds like this; 
dont get mad at me if it's wrong:
e|-----------------------------------------------------
B|-----------------------------------------------------
G|-4-4-4-4-4-4-4-4-4-4-4-4-4-4-4-6-6-6-6-6-6-6-5-5-5-5-<--repeat 
D|-----------------------------------------------------
A|-----------------------------------------------------
E|-----------------------------------------------------

Intro,
and then there's the end part, and I can't figure it out at all. 
But it's not like I haven't tried, either. If anyone can figure it out, 
you have talent.

Comments about this tab

No comments/corrections found. Add your own

Complimentary Christian Ringtones
Dadamobile and CGR have teamed up to bring your favorite Christian artists right to your phone. Sign up today and get 10 complementary ringtones!
Tab Country
Did you know CGR has a sister site w/ country guitar tabs? Well we do! Its called Tab Country. It has a great archive with a lot of country tabs.
Rockin Tabs
Are you looking for a site that has rock guitar tabs? Then Rockintabs.com is the place for you. It is a budding site with many rock guitar tabs. Submit your tab today.
Tab Gallery
Tab Gallery has a compilation of christian, rock, and country tabs all in one place. Come visit us.