Guitar Tabs
song title    band name

Join Us Today!

Don't strum alone...
be a part of the largest online Christian music community. Browse thousands of guitar tabs and chat w/ musicians like yourself.


It's Free!

This tab has been rated a 4.75 out of 5 for accuracy. (4 votes)Sorry, but you must be logged in to rate this tab.
Click here to log-in, or you can click here to register.
(Registration is free)

All songs owned by corresponding publishing company. If you make copies of any song on this website, be sure to report your usage to CCLI.
Submitted by: Another Hunter

Title: The Gauntlet
Artist: Demon Hunter
Album: Selftiteld
Tabbed by: Just Another Hunter

Tuning: Dropped C

RIFF A
|--------------------------------------
|--------------------------------------------
|--------------------------------------
|-9-9-9---9-9-9---9-9-9---9-9-9-----------
|-7-7-7---8-8-8---8-8-8---8-8-8-----------------
|-7-7-7---7-7-7---0-0-0---0-0-0----------------------



RIFF B - 1:39 “It’s so beautiful to me...”
|-------------------------------------
|--------------------------------
|------------------------------------------
|-3-3-3-3---3-3-3-3---2-2-2-2---2-2-2-2------------------
|-3-3-3-3---3-3-3-3---2-2-2-2---2-2-2-2--------------
|-3-3-3-3---3-3-3-3---2-2-2-2---2-2-2-2-------------------------



RIFF C - 3:36 “Not a finger...”
|------------------------------------------
|-----------------------------------------------
|-------------------------------------
|-----9-------9-------9-------9---------------------
|---7-------8-------8-------8----------------------------
|-7-------7-------0-------0-------------------------
						repeat until the end...

Okay, that’s it. Here you have the basics. Figure out the rest for yourself...

All glory to God.

Comments about this tab

drew829 - 2005-06-23

RIFF A is wrong. It's like this.

|---------------------------------
|---------------------------------
|---------------------------------
|-9-9-7---9-9-9---9-9-9---9-9-9---
|-7-7-7---8-8-7---8-8-0---8-8-0---
|-7-7-7---7-7-7---0-0-0---0-0-0---


keller - 2005-09-06

I think drew's right, but awesome tab.


I Am THE Hunter - 2005-10-12

i think drew's on crack


Kondore - 2006-01-06

I hate to agree with a guy that is on crack heh heh heh...but I think he is close to being right. You can hear a change in the chords on the third strum of each chord. But what do I know..I am just a kid who sits home and plays guitar all day ! haha


Add a comment/correction

Complimentary Christian Ringtones
Dadamobile and CGR have teamed up to bring your favorite Christian artists right to your phone. Sign up today and get 10 complementary ringtones!
Tab Country
Did you know CGR has a sister site w/ country guitar tabs? Well we do! Its called Tab Country. It has a great archive with a lot of country tabs.
Rockin Tabs
Are you looking for a site that has rock guitar tabs? Then Rockintabs.com is the place for you. It is a budding site with many rock guitar tabs. Submit your tab today.
Tab Gallery
Tab Gallery has a compilation of christian, rock, and country tabs all in one place. Come visit us.