Guitar Tabs
song title    band name

Join Us Today!

Don't strum alone...
be a part of the largest online Christian music community. Browse thousands of guitar tabs and chat w/ musicians like yourself.


It's Free!

This tab has been rated a 5.00 out of 5 for accuracy. (1 vote)Sorry, but you must be logged in to rate this tab.
Click here to log-in, or you can click here to register.
(Registration is free)

All songs owned by corresponding publishing company. If you make copies of any song on this website, be sure to report your usage to CCLI.
Submitted by: brownthebassist

Artist: O.C. Supertones
Song: Cult of Cool
Album: The Revenge of the O.C. Supertones
Tabber: brownthebassist

upstrokes are mostly used in this song
~ = play several times
> = hold note 

Intro:

E-----
B-----
G-----
D--7~-
A--7~-
E--5~-

Verse:

E----------------------
B----------------------
G-------9~--------7~---
D--7~---9~---7~---7~---
A--7~---7~---7~---5~---
E--5~--------5~--------

Bridge:             2nd Time 
             
E------------       E---------
B------------       B---------
G------------  X2   G--777-9--
D--9~---7~---       D--777-9--
A--9~---7~---       A--555-7--
E--7~---5~---       E---------

Chorus:
                    1st ending   2nd ending
E------------------|-----------|-------------
B------------------|-----------|-------------
G-----------6-7-4--|-7>----9>--|--9999-------
D--7-6-7>---6-5-4--|-7>-7>-9>--|--9999---7---
A--7-6-7>---4-5-2--|-5>-7>-7>--|--7777---7---
E--5-4-5>----------|----5>-----|---------5---

I'm too lazy to write out the amount of times each
section is played.Listen to the cd for the exact 
patterns.

Comments about this tab

No comments/corrections found. Add your own

Complimentary Christian Ringtones
Dadamobile and CGR have teamed up to bring your favorite Christian artists right to your phone. Sign up today and get 10 complementary ringtones!
Tab Country
Did you know CGR has a sister site w/ country guitar tabs? Well we do! Its called Tab Country. It has a great archive with a lot of country tabs.
Rockin Tabs
Are you looking for a site that has rock guitar tabs? Then Rockintabs.com is the place for you. It is a budding site with many rock guitar tabs. Submit your tab today.
Tab Gallery
Tab Gallery has a compilation of christian, rock, and country tabs all in one place. Come visit us.