Guitar Tabs
song title    band name

Join Us Today!

Don't strum alone...
be a part of the largest online Christian music community. Browse thousands of guitar tabs and chat w/ musicians like yourself.


It's Free!

This tab has been rated a 3.33 out of 5 for accuracy. (3 votes)Sorry, but you must be logged in to rate this tab.
Click here to log-in, or you can click here to register.
(Registration is free)

All songs owned by corresponding publishing company. If you make copies of any song on this website, be sure to report your usage to CCLI.
Submitted by: worshipinafrica

Words and Music by Reese Roper
From the album "The light of things hoped for"

Last time I checked, only the intro was available for this song, and the 
one that was posted was weird for me to play. Here is another way to play the 
intro, as well as the rest of the song. Like many BS2 songs, this one is
beautiful in its simplicity, making a backing for amazing lyrics that is
simple, but not derivative.

INTRO:
e-----------------------------------------------------
B--------9-------------9----------------10-------------9------
G-----9-----9-------9-----9----------9------9-------9---------  (X4)
D--7-------------9---------------11--------------9--------9---
A-----------------------------------------------------
E---------------------------------------------


Verse1: A D E  
        A  E  (repeat all 4 times)

Pre-chorus1: A B C# D

Verse2: Just like verse1

Pre Chorus2: A B C# D E

Chorus: A E D E (X4)

Bridge: not sure, but I think it's the same chords as the chorus
I only have an acoustic, and it's tough to pick out the different tracks.

Chorus: Same

Note: I play this song capo two, in G; it sounds better to my ear that way.
But after careful listening, I'm pretty sure they play it open.

Comments about this tab

Roast - 2004-08-04

Here, I figured out the bridge.

Guitar 1

E|-----------------------------------------------------------------|
B|-----------------------------------------------------------------|
G|-----------------------------------------------------------------|
D|-----6---6---6---------------------------------------------------|
A|-7-7---7---7---7-----3---3---3-------4---4---4-------6---6---6---|
E|-----------------4-4---4---4---4-5-5---5---5---5-7-7---7---7---7-|

Guitar 2

E|---------------------|
B|---------------------|
G|---------------------|
D|---------------------|
A|-6-6/7--7/3--7/6\7-9-|
E|---------------------|

I'm can't really remember right now if I added those slides myself, or if they're actually in the song (I'm doing this from memory), but right now, they sound good to me. Enjoy!

-Joester


Roast - 2004-08-04

That definitely didn't come out right. oops!

Guitar 1

E|---------------------------------|
B|---------------------------------|
G|---------------------------------|
D|-----6---6---6-------------------|
A|-7-7---7---7---7-----3---3---3---|
E|-----------------4-4---4---4---4-|

E|---------------------------------|
B|---------------------------------|
G|---------------------------------|
D|---------------------------------|
A|-----4---4---4-------6---6---6---|
E|-5-5---5---5---5-7-7---7---7---7-|

Hopefully that will look a little better. Sorry about that!

-Joester


Rather_Dashing - 2005-04-03

um the verse dosent sound right to me


Rather_Dashing - 2005-04-03

Ahh that verse dosent sound at all like it


tismertoast - 2006-03-02

Hey, I think the Chorus goes like this:

E F#m A B


Add a comment/correction

Complimentary Christian Ringtones
Dadamobile and CGR have teamed up to bring your favorite Christian artists right to your phone. Sign up today and get 10 complementary ringtones!
Tab Country
Did you know CGR has a sister site w/ country guitar tabs? Well we do! Its called Tab Country. It has a great archive with a lot of country tabs.
Rockin Tabs
Are you looking for a site that has rock guitar tabs? Then Rockintabs.com is the place for you. It is a budding site with many rock guitar tabs. Submit your tab today.
Tab Gallery
Tab Gallery has a compilation of christian, rock, and country tabs all in one place. Come visit us.