Guitar Tabs
song title    band name

Join Us Today!

Don't strum alone...
be a part of the largest online Christian music community. Browse thousands of guitar tabs and chat w/ musicians like yourself.


It's Free!

This tab has been rated a 4.00 out of 5 for accuracy. (7 votes)Sorry, but you must be logged in to rate this tab.
Click here to log-in, or you can click here to register.
(Registration is free)

All songs owned by corresponding publishing company. If you make copies of any song on this website, be sure to report your usage to CCLI.
Submitted by: Sammy

Break The Silence
Thousand Foot Krutch
Album: Phenomenon 2003 Tooth and Nail
Tabbed by: Sam Stranks - sam_stranks@hotmail.com


Order is:
Intro Riff x2
Verse Riff x2
Chorus Riff x2
Verse Riff x2
Chorus Riff x4
Bridge Riff x3
Bridge2 Riff x1
Chorus Riff x4
Ending Riff
*listen to cd if still unsure how many times to play each riff

Intro Riff:
E---------------------------------------------------------------------|
B---------------------------------------------------------------------|
G---------7---------------5-------------------------10-10-10-10-------|
D-0-0---0-7---0---0-0---0-5---0---5-------7----------8--8--8--8-------|
A-0-0---0-5---0---0-0---0-3---0---5-------5----------8--8--8--8-------|
D-0-0---0-0---0---0-0---0-0---0---5-------5---------------------------|


Verse Riff:
E----------------------------------------------------------------|
B----------------------------------------------------------------|
G----------------------------------------------------------------|
D-7---0-----0-----0-----0-----0---6---0-----0-----0-----0-----0--|
A-7---0-----0-----0-----0-----0---6---0-----0-----0-----0-----0--|
D-7---0-----0-----0-----0-----0---6---0-----0-----0-----0-----0--|

E----------------------------------------------------------------|
B----------------------------------------------------------------|
G----------------------------------------------------------------|
D-7---0-----0-----0-----0-----0---3---0-----0-----0-----0-----0--|
A-7---0-----0-----0-----0-----0---3---0-----0-----0-----0-----0--|
D-7---0-----0-----0-----0-----0---3---0-----0-----0-----0-----0--|


Chorus Riff:
E----------------------------------------------------------------|
B----------------------------------------------------------------|
G-----------------5---5---5---5----------------------------------|
D-0---0---0---0---5---5---5---5---5---5---5---5---8---8---8---8--|
A-0---0---0---0---3---3---3---3---5---5---5---5---8---8---8---8--|
D-0---0---0---0-------------------5---5---5---5---8---8---8---8--|
*These are just the basic chords, you can add alot of stuff (listen to cd)


Bridge Riff:
E--------------------------------------------------------------------|
B--------------------------------------------------------------------|
G----------------------------------------------------10--10---9---9--|
D-8---8---8---8---10---10---10---10---0---0---0---0---0---0---0---0--|
A-8---8---8---8---10---10---10---10---0---0---0---0---0---0---0---0--|
D-8---8---8---8---10---10---10---10---0---0---0---0---0---0---0---0--|


Bridge2 riff:
D-3---3---1-------0----------------|
A-3---3---1-------0----------------|
D-3---3---1-------0----------------|


Ending Riff:
D-0--
A-0--
D-0--
*This is played just once on the first half of the ending and played over 
and over again on the second half

Comments about this tab

SSj Guitarist - 2004-07-26

Hey, thanks for the tab! For those of you who are having some trouble with parts of it. I found after you play each note in the verse mute the strings, and my only correction is when you listen to the CD at the end you play the part about 8 or 9 times muted then with an open
D [-15-]
A [-15-]
D [-15-]
and then in the second half, do the exact same thing, only don't mute the strings.


Jimbo12 - 2004-10-28

I just have a little variation on the intro.....

E/--------------------------------------------------------------------------------------
B/--------------------------------------------------------------------------------------
G/--------------7---------------------5-------------10--10--10--10--x--x--x--x
D/--5--0---0--7--0--0--0--0--0--5--0--5--7--10--10--10--10--x--x--x--x
A/--5--0---0--5--0--0--0--0--0--3--0--5--5----8---8----8----8--x--x--x--x
D/--5--0---0-----0--0--0--0--0------0--5--5-------------------------------------


Jimbo12 - 2004-10-28

Wow, oops, that turned out all funny. :S


MMHMM RK - 2005-01-12

nice job. if you get a chance try to do Last Words. ive been racking my brains out tryin to figure i out! thanx! ><>


eddieg - 2005-02-02

I still think the intro and verse are different. I believe its this:
Intro
D|7-0---0-7-0---5-0---0-5-0---5-0---0-0---0-0-10--101010101010|
A|7-0---0-5-0---5-0---0-3-0---5-0---0-0---0-0-8---8-8-8-8-8-8-|
D|7-0---0---0---5-0---0---0---5-0---0-0---0-0-8---8-8-8-8-8-8-|

Verse
D|3---0----0----0----0----0-0-|
A|3---0----0----0----0----0-0-|
D|3---0----0----0----0----0-0-|


dtaylorl - 2005-04-25

My only comment is that you should do a pull offs during the verse. Like this (p)=pull off:
Verse Riff:

D-7(p)0---0-----0-----0-----0-----0---6(p)0---0-----0-----0-----0-----0--|
A-7(p)0---0-----0-----0-----0-----0---6(p)0---0-----0-----0-----0-----0--|
D-7(p)0---0-----0-----0-----0-----0---6(p)0---0-----0-----0-----0-----0--|

D-7(p)0---0-----0-----0-----0-----0---3(p)0---0-----0-----0-----0-----0--|
A-7(p)0---0-----0-----0-----0-----0---3(p)0---0-----0-----0-----0-----0--|
D-7(p)0---0-----0-----0-----0-----0---3(p)0---0-----0-----0-----0-----0--|


dtaylorl - 2005-04-25

Oh... and SSj is right about muting after evey chord in the verse :)
Great tab!


SSj Guitarist - 2005-07-19

Victory is mine!!! And also, good stuff guys, I should try some of this out too.

SSj


technometal - 2005-08-18

Nice tab my only correction is that Trevor scratches four times in unison with the drums after every intro riff.


titus13 - 2005-09-02

Hey guys.... There's a few corrections needed here. Firstly, the verse goes the same pattern as already displayed but its 7th to 10th, not 7th to 3rd. Secondly, On the bridge it goes 8th to 3rd, not to the 10th. And the ending sounds more like the following,

G-9-0-0-10-0-0-
D-7-0-0-8--0-0-
A-7-0-0-8--0-0-
D 7-0-0-8--0-0-

Keep repeating this pattern till the end of the song and the number of strokes for each note you can fit in. I wont have enough room for all of the strokes.

There you go and God bless!


malachai - 2005-10-22

OK this is as close as i can get this song

Intro
G|------55----10-10
D|1-000-xx-77-x--x
A|1-000-33-55-8--8 X2
D|1-000----55-

verses are right as they are

chorus
D|1-000-55-55-55-10-10
A|1-000-33-55-55-8--8 X4
D|1-000----55-55-8--8

then back to intro n such
awesome song, keep rawkin


Dani_Boy - 2006-04-03

I don't see how you guys can hear a 6 fretted chord in the verse.
In my opinion the verse goes like this:
D|--7-0--0--0--0--xx10-0--0--0--0--xx7-0--0--0--0--xx3-0--0--0--0-|
A|--7-0--0--0--0--xx10-0--0--0--0--xx7-0--0--0--0--xx3-0--0--0--0-|
D|--7-0--0--0--0--xx10-0--0--0--0--xx7-0--0--0--0--xx3-0--0--0--0-|

D|xx7-0--0--0--0--xx10-0--0--0--0--xx7-0--0--0--0--xx3-0--0--0--0-|
A|xx7-0--0--0--0--xx10-0--0--0--0--xx7-0--0--0--0--xx3-0--0--0--0-|
D|xx7-0--0--0--0--xx10-0--0--0--0--xx7-0--0--0--0--xx3-0--0--0--0-|

Where you hear the 6 fretted chord I hear a 10 fretted chord.
Please tell me, am I right or do you think I'm way off?


Dani_Boy - 2006-04-16

Don't mean to complain, but there are two guitars in the song. And then they have a few chords and stuff in the intro where they add different tones to them. I'll do my version after I've finished Bounce. But, hey, your tab is not all that bad. It's pretty good actually, so keep up the good work! :)


Add a comment/correction

Complimentary Christian Ringtones
Dadamobile and CGR have teamed up to bring your favorite Christian artists right to your phone. Sign up today and get 10 complementary ringtones!
Tab Country
Did you know CGR has a sister site w/ country guitar tabs? Well we do! Its called Tab Country. It has a great archive with a lot of country tabs.
Rockin Tabs
Are you looking for a site that has rock guitar tabs? Then Rockintabs.com is the place for you. It is a budding site with many rock guitar tabs. Submit your tab today.
Tab Gallery
Tab Gallery has a compilation of christian, rock, and country tabs all in one place. Come visit us.