Guitar Tabs
song title    band name

Join Us Today!

Don't strum alone...
be a part of the largest online Christian music community. Browse thousands of guitar tabs and chat w/ musicians like yourself.


It's Free!

This tab has been rated a 0.50 out of 5 for accuracy. (2 votes)Sorry, but you must be logged in to rate this tab.
Click here to log-in, or you can click here to register.
(Registration is free)

All songs owned by corresponding publishing company. If you make copies of any song on this website, be sure to report your usage to CCLI.
Submitted by: GROOVADELIC

NO ONE LIKE YOU - DAVID CROWDER BAND

I may edit this again - I'm doing this off the top of my head at work.  =)

Capo 2nd Fret to play in key of F#, 3rd Fret to play in G.

Guitar 1
e------------------------------------------------
b------0-0-0------------------0-0-0--------------
g------4-4-4-----2-1-2-1-2---/4-4-4----2-1-2-1-2-
d------------2-2-2-2-2-2-----------2-2-2-2-2-2---
a------------------------------------------------
e------------------------------------------------

Guitar 2 capo 4th fret in F#, 5th fret in G.

Guitar 1
e------------------------------------------------
b------------------------------------------------
g--1-1----------6-6------4-4-------2-2-1---------
d--2-2----------6-6------4-4-------2-2-2---------
a--2-2----------4-4------2-2-------0-0-0---------
e--0-0-------------------------------------------

Guitar 2 Capo capo 4th fret in F#, 5th fret in G.

e--0-0----------0-0------2-2-------3-3-2---------
b--3-3----------3-3------3-3-------3-3-3---------
g--2-2----------2-2------2-2-------2-2-2---------
d--0-0----------0-0------0-0-------0-0-0---------
a------------------------------------------------
e------------------------------------------------

Guitar 1 - Same thing

Guitar 2 Capo capo 4th fret in F#, 5th fret in G.

e--2-2----------0-0------2-2-------3-3-2----------
b--3-3----------3-3------3-3-------3-3-3----------
g--2-2----------2-2------2-2-------2-2-2----------
d--0-0----------0-0------0-0-------0-0-0----------
a-------------------------------------------------
e-------------------------------------------------

Guitar 1
e------------------------------------------------
b------0-0-0------------------0-0-0--------------
g------4-4-4-----2-1-2-1-2---/4-4-4----2-1-2-1-2-
d------------2-2-2-2-2-2-----------2-2-2-2-2-2---
a------------------------------------------------
e------------------------------------------------

Verse: 
Guitar 1 - let it ring out
e--0-0-------------------------------------------
b--0-0-------------------------------------------
g--1-1-------------------------------------------
d--2-2-------------------------------------------
a------------------------------------------------
e------------------------------------------------


Guitar 2 - downstroke and muting upstrokes
e------------------------------------------------
b------------------------------------------------
g------------------------------------------------    repeat 1,2,3,4 times
d-6x-6x-6x-6x-4x-4x-4x-4x-2x-2x-2x-2x------------
a-4x-4x-4x-4x-2x-2x-2x-2x-0x-0x-0x-0x-xx-xx-xx-xx
e-------------------------------------3x-3x-3x-3x


Guitar 1
e------0----------0----------0---------0----------
b--------0------0---0------0---0-----0---0--------
g--1--------1-x--------1-x-------1h2-------1------    come in 3,4 time
d-------------------------------------------------
a-------------------------------------------------
e-------------------------------------------------

Guitar 1 - let it ring out
e-------------------------------------------------
b-------------------------------------------------
g--4-------------------6-6--/8-8-8----------------
d--4-------------------x-x---x-x-x----------------
a--2-------------------4-4--/6-6-6----------------
e--0----------------------------------------------

Chorus - That's all for now.

Comments about this tab

GROOVADELIC - 2004-07-29

Scratch that third from the bottom tab... it's basically fifth chords decending.


austinapalooza - 2005-07-11

whatever floats ur boat dude. You made that intro kinda hard to play.

maybe try

E
A
D
G 0
B 333 10101
E


Add a comment/correction

Complimentary Christian Ringtones
Dadamobile and CGR have teamed up to bring your favorite Christian artists right to your phone. Sign up today and get 10 complementary ringtones!
Tab Country
Did you know CGR has a sister site w/ country guitar tabs? Well we do! Its called Tab Country. It has a great archive with a lot of country tabs.
Rockin Tabs
Are you looking for a site that has rock guitar tabs? Then Rockintabs.com is the place for you. It is a budding site with many rock guitar tabs. Submit your tab today.
Tab Gallery
Tab Gallery has a compilation of christian, rock, and country tabs all in one place. Come visit us.