Guitar Tabs
song title    band name

Join Us Today!

Don't strum alone...
be a part of the largest online Christian music community. Browse thousands of guitar tabs and chat w/ musicians like yourself.


It's Free!

This tab has been rated a 5.00 out of 5 for accuracy. (3 votes)Sorry, but you must be logged in to rate this tab.
Click here to log-in, or you can click here to register.
(Registration is free)

All songs owned by corresponding publishing company. If you make copies of any song on this website, be sure to report your usage to CCLI.
Submitted by: MemoryLane

“Estrella” by Brave Saint Saturn (The Light of Things Hoped For) copyright 2002
tabbed by JD Math
played with capo on 3rd fret

1st Verse/ 2nd Verse
e:--------5-------5-------5----------------2-------2-------2-------
B:--------3-------3-------3----------------3-------3-------3-------
G:-------------------------------------2-----------2-------2-------
D:-----0------0-------0-------0----0-----------0-------0-------0---
A:-----------------------------------------------------------------
E:--3--------------------------------------------------------------

1st change in verses
e:-----------------------------------------------------------------------
B:--------------------------------------------------------3-----------3--
G:----------------------------------------2---2---2---2---2---2---2---2--
D:----0---0---0---0---0---0---0---0---0---0---0---0---0---0---0---0------
A:----5---5---5---4---4---4---4---0--------------------------------------
E:-----------------------------------------------------------------------

2nd change in verses         
e:---2---2---2---2---5---5---5---5---5---5---5---5---5---5---5---5------
B:---3---3---3---3---3---3---3---3---3---3---3---3---3---3---3---3------
G:---2---2---2---2---2---2---2---2---0---0---0---0---2---2---2---2------
D:---0---0---0---0---0---0---0---0---0---0---0---0---0---0---0---0------
A:---------------------------------------x---x---x---x---5---5---5---5--
E:---------------------------------------3---3---3---3---x---x---x---x--

Chorus:  (Chords)		  at end of chorus:
e:--5--  --5--  --5--  --5--    ------------------------------------------		
B:--3--  --3--  --3--  --3--    ------------------------------------------
G:--2--  --0--  --2--  --2--    ------------------------------------------
D:--0--  --0--  --0--  --2--    --0-0-0-0-0-0-0-0-2-2-2-2-2-2-2-0---------
A:--5--  --x--  -----  -----    --5-5-5-5-5-5-5-5-0-0-0-0-0-0-0-0---------
E:--x--  --3--  -----  -----    ------------------------------------------

After end of chorus the 2nd time play this:
e:--------2-----2-----2-----------2-----2-----2-----------2-----2-----2--------
B:--------3-----3-----3-----------3-----3-----3-----------3-----3-----3--------
G:-----2--------2-----2-----------2-----2-----2-----------2-----2-----2--------
D:--0--------0-----0-----0-----4-----4-----4-----4-----------------------------
A:--------------------------2--------------------------4-----4-----4-----4-----
E:--------------------------------------------------2--------------------------

e:--------2-----2-----2--------------2-----2-----2-----------2-----2-----2-----
B:--------3-----3-----3--------------3-----3-----3-----------3-----3-----3-----
G:--------------4-----4--------2-----------2-----2-----------2-----2-----2-----
D:-----4-----4-----4-----4--0-----0-----0-----0-----0--------------------------
A:--2-----------------------------------------------------4-----4-----4-----4--
E:-----------------------------------------------------2-----------------------

e:--------2-----2-----2-----------------------------
B:--------3-----3-----3-----------------------------
G:--------2-----2-----2-----------------------------
D:-----4-----4-----4-----4--0--0--0--0--2--2--2--2--
A:--2-----------------------5--5--5--5--0--0--0--0--
E:--------------------------------------------------

Repeat Chorus twice and end on D

I’m pretty sure this song is right for the most part unless my ear deceives me.
I made a more in depth tab is all. But you have to have a good stretch in order
to play it. Good Luck. Hopefully this won’t be too confusing. I hope this makes  
perfect since to all you guitar playing Brave Saint Saturn fans. PEACE  

Comments about this tab

TBHockey - 2004-07-19

Oh wow, this way is a lot easier than my way, lol. I didn't really try to get mine exact, i just wanted to be able to play it. Thanks for this tab, now i can play ir right! (and it doesnt hurt my wrist)


xccliffy532 - 2004-09-26

hey, thanks for doin this song, its so awesome it almost makes me cry. lol. it gives me somethin to listen to now that fif broke up...just wanted to let u know u did an AWESOME job on this one
-Josh


Jared_Collins - 2006-01-19

Im ninty nine percent sure that, at the very beginning, it should be 2nd fret of the b string....not the 3rd. (the third tone played) Then again....I might be wrong.


Add a comment/correction

Complimentary Christian Ringtones
Dadamobile and CGR have teamed up to bring your favorite Christian artists right to your phone. Sign up today and get 10 complementary ringtones!
Tab Country
Did you know CGR has a sister site w/ country guitar tabs? Well we do! Its called Tab Country. It has a great archive with a lot of country tabs.
Rockin Tabs
Are you looking for a site that has rock guitar tabs? Then Rockintabs.com is the place for you. It is a budding site with many rock guitar tabs. Submit your tab today.
Tab Gallery
Tab Gallery has a compilation of christian, rock, and country tabs all in one place. Come visit us.