Guitar Tabs
song title    band name

Join Us Today!

Don't strum alone...
be a part of the largest online Christian music community. Browse thousands of guitar tabs and chat w/ musicians like yourself.


It's Free!

This tab has been rated a 4.62 out of 5 for accuracy. (13 votes)Sorry, but you must be logged in to rate this tab.
Click here to log-in, or you can click here to register.
(Registration is free)

All songs owned by corresponding publishing company. If you make copies of any song on this website, be sure to report your usage to CCLI.
Submitted by: Adam K

Pillar-Bring Me Down
CD:Where Do We Go From Here?
Drop C CGCFAD
 2004 Flicker Records
I Changed the tuning from the other "Bring Me Down"'s

Intro
F[----------------55--------------3-----------]
C[-3-33-33-1-3-33-55-66-1/1-1/1-1-3--010-8066-]
G[-3-33-33-1-3-33-33-66-1/1-1/1-1-1--010-8066-]x3
C[-3-33-33-1-3-33----66-1/1-1/1-1----010-8066-]

F[----------------55--------------6-]
C[-3-33-33-1-3-33-55-66-1/1-1/1-1-6-]
G[-3-33-33-1-3-33-33-66-1/1-1/1-1-4-]
C[-3-33-33-1-3-33----66-1/1-1/1-1---]

Verse
F[-------------------------------------5h6p5---------------------------------]
C[-6-5-88--88---6-6---6-5-88--88---6s8-------6-5-88--88---6-6---6-5-88--88---]
G[-----------66----4------------66---------------------66----4------------66-]

F[---35-6p5---------------------------------6-]
C[-3--------6-5-88--88---6-6---6-5-88--88---6-]
G[--------------------66----4------------66-4-]


Chorus
F[----------------55--------------3-----------]
C[-3-33-33-1-3-33-55-66-1/1-1/1-1-3--010-8066-]
G[-3-33-33-1-3-33-33-66-1/1-1/1-1-1--010-8066-]x3
C[-3-33-33-1-3-33----66-1/1-1/1-1----010-8066-]

F[----------------55--------------3-----------10-]
C[-3-33-33-1-3-33-55-66-1/1-1/1-1-3--010-8066--x-]
G[-3-33-33-1-3-33-33-66-1/1-1/1-1-1--010-8066--8-]
C[-3-33-33-1-3-33----66-1/1-1/1-1----010-8066----]

Verse 2
F[-------------------------------------5h6p5---------------------------------6-
C[-6-5-88--88---6-6---6-5-88--88---6s8-------6-5-88--88---6-6---6-5-88--88---6-
G[-----------66----4------------66---------------------66----4------------66-4-

Chorus 2
F[----------------55--------------3-----------]
C[-3-33-33-1-3-33-55-66-1/1-1/1-1-3--010-8066-]
G[-3-33-33-1-3-33-33-66-1/1-1/1-1-1--010-8066-]x4
C[-3-33-33-1-3-33----66-1/1-1/1-1----010-8066-]

Bridge
C[-3-33-33-1-3-33-3p13-33-33-1-3-33-3p1-]
P.M.............................

C[-3-33-33-1-3-33-3p1-]
G[-3-33-33-1-3-33-3p1-]x4
C[-3-33-33-1-3-33-3p1-]

F[-6---------------------6------------------5h6p5-]
C[-x-66p566p566p566p5-88-x-66p566p566p566p5-------]
G[-4---------------------4------------------------

C[-3-33-33-1-3-33-3p1-]
G[-3-33-33-1-3-33-3p1-]x2
C[-3-33-33-1-3-33-3p1-]

F[-6---------------------6------------------5h6p5-]
C[-x-66p566p566p566p5-88-x-66p566p566p566p5-------]
G[-4---------------------4------------------------]

C[-3-33-33-1-3-33-3p1-]
G[-3-33-33-1-3-33-3p1-]x2
C[-3-33-33-1-3-33-3p1-]

F[-6---------------------6------------------5h6p5-]
C[-x-66p566p566p566p5-88-x-66p566p566p566p5-------]
G[-4---------------------4------------------------]

F[-6---------------------]
C[-x-66p566p566p566p5-88-]
G[-4---------------------]Stop

Chorus 3
F[----------------55--------------3-----------]
C[-3-33-33-1-3-33-55-66-1/1-1/1-1-3--010-8066-]
G[-3-33-33-1-3-33-33-66-1/1-1/1-1-1--010-8066-]x3
C[-3-33-33-1-3-33----66-1/1-1/1-1----010-8066-]

F[----------------55--------------66666666-]
C[-3-33-33-1-3-33-55-66-1/1-1/1-1-66666666-]
G[-3-33-33-1-3-33-33-66-1/1-1/1-1-44444444-]
C[-3-33-33-1-3-33----66-1/1-1/1-1----------]

Ending
C[-3-33-33-1-3-33-3p1-]
G[-3-33-33-1-3-33-3p1-]x3
C[-3-33-33-1-3-33-3p1-]

C[-3-33-33-1-3-]
G[-3-33-33-1-3-]
C[-3-33-33-1-3-]

Tabbed by Adam K.

Comments about this tab

flyingguitarist - 2004-08-08

Pretty good. The verse is a little hard to follow, but overall, really good job tabbing this.


bseg - 2004-08-25

F[----------------55--------------3-----------]
C[-3-33-33-1-3-33-55-66-1/1-1/1-1-3--010-8066-]
G[-3-33-33-1-3-33-33-66-1/1-1/1-1-1--010-8066-]x3
C[-3-33-33-1-3-33----66-1/1-1/1-1----010-8066-]
^^
??

What is the best way to play the 553 part? When that part comes I usually improvise and play it like this:


C[-3-33-33-1-3-33-10-10-66-8/6-8/6-8/6
G[-3-33-33-1-3-33-10-10-66-8/6-8/6-8/6
C[-3-33-33-1-3-33-10-10-66-8/6-8/6-8/6 etc..

and it sounds ok and kinda like the song. But id like to know how to finger the real version a little better


mondaymrningfan - 2004-12-16

Will someone please do a tab for holding on, it is an awesome song.


lilsk8rboi411 - 2004-12-21

just get the book!


lilsk8rboi411 - 2004-12-27

f-------------5 11
c3 3 1 3 3 33 5 6 1111 8 12
g3 3 1 3 3 33 3 6 1111 8 10
c3 3 1 3 3 33 x 6 1111 8 00 8 606 0 then at andright b4 verse 10


lilsk8rboi411 - 2004-12-27

grrr they messed up!!! ill make a post on it


SSj Guitarist - 2005-01-17

In regards to bseg, how during the "553" part, you use 10 instead, there's nothing wrong with that, and it will sound like the song somewhat because it's the same note, both positions are the "C power chord" only the 10 is barred, And, Adam K, excellent job! I've seen the actual tab in the book and it's almost the same thing pretty much! Peace,

SSj


Timberwolf - 2005-03-15

Last part of the Intro.
-----------
-----------
-----------
-----------
-----------
000-8p0-66-
Verse
-----------------
-----------------
-----------------
----66----55-etc.
888----88--------
-----------------


Timberwolf - 2005-03-15

Oh,and the little thing played behind the intro is
w/flanger

1--------1-1-----
1-----3--1----2--
----4---------1--
-----------------
-----------------
-----------------


Timberwolf - 2005-03-15

I think that's right.


CRloveSkillet13 - 2005-05-24

Adam K,you ROCK!I have read a lot of tabs by you
and you tab almost all of my favorite songs!Where did
you learn to play guitar?


Adam K - 2005-05-27

taught myself. learned by ear. but i learned a few basic chords
from a Worship guitar book.


CRloveSkillet13 - 2005-05-31

I also taught myself and learned by ear.But now I've been taking lessons for
a while.
,Chris


Dani_Boy - 2006-04-17

Really good I say! But why does everybody get the verse so wrong?! I just wonder that. I might tab it sometime, we'll see. But I must say Adam K has done a really good version despite the verses. Really good! Rawk on!


Rockin4MyChrist - 2007-01-26

what is the background for the verse? its on the DVD that came with the special edition The Reckoning CD if you want some kind of visual reference


Add a comment/correction

Complimentary Christian Ringtones
Dadamobile and CGR have teamed up to bring your favorite Christian artists right to your phone. Sign up today and get 10 complementary ringtones!
Tab Country
Did you know CGR has a sister site w/ country guitar tabs? Well we do! Its called Tab Country. It has a great archive with a lot of country tabs.
Rockin Tabs
Are you looking for a site that has rock guitar tabs? Then Rockintabs.com is the place for you. It is a budding site with many rock guitar tabs. Submit your tab today.
Tab Gallery
Tab Gallery has a compilation of christian, rock, and country tabs all in one place. Come visit us.