Guitar Tabs
song title    band name

Join Us Today!

Don't strum alone...
be a part of the largest online Christian music community. Browse thousands of guitar tabs and chat w/ musicians like yourself.


It's Free!

This tab has been rated a 5.00 out of 5 for accuracy. (1 vote)Sorry, but you must be logged in to rate this tab.
Click here to log-in, or you can click here to register.
(Registration is free)

All songs owned by corresponding publishing company. If you make copies of any song on this website, be sure to report your usage to CCLI.
Submitted by: MooreDrums

The version on the CD is in Eb. If you want to tune down to it... it should be
the same pattern...but this is in normal tuning...so playing with the CD 
will sound a little funny.


Intro
e|--------------------------------------------|
B|------3--------3--------3--------3----------|
G|-------------------------------2------------|2 x 
D|----0---0----4---4----2---2--0--------------|
A|-----------2--------3-----------------------|
E|--3-----------------------------------------|
   


e|------------------------2-------------------|
B|--------------------1---3-------------------|
G|--------------------0---2-------------------|
D|--------------------2---0-------------------|
A|----2---4---5---9---3-----------------------|
E|--0---2---3---7-----------------------------|


e|-------------------|
B|--1-----1----------|
G|--2-----0----------|
D|--2-----2----------|
A|--0-----3----------|
E|-------------------|

This one sounds closer to me. I hope to get the full song once I have
some more time...

If you want to add anything feel free

Hope you enjoy.

Comments about this tab

iwant2playgetar - 2004-08-12

okay i know that you can not tab the chords and lyrics on this website due to copyright laws but does anyone know of another website were you can get them tabed with the chords and the lyrics.

In CHRIST,


GrayFriar - 2004-08-13

You might try gary and greg's site (umm) http://www.geocities.com/ggtabs07/
I think he had "Glory Defined" with the Lyrics.

Gray~


anthony8099 - 2004-08-14

I was wondering if any of you could try and tab ''God is Great'' for me. I'd really like to learn it, but I'm having trouble trying to figure it out. So if anybody has any ideas on how to play it, please post it, thanks.


iwant2playgetar - 2004-08-22

thanks GRAYFRIAR for the website you listed
i am going to go check it out!!

IN CHRIST
IWANT2PLAYGETAR


Add a comment/correction

Complimentary Christian Ringtones
Dadamobile and CGR have teamed up to bring your favorite Christian artists right to your phone. Sign up today and get 10 complementary ringtones!
Tab Country
Did you know CGR has a sister site w/ country guitar tabs? Well we do! Its called Tab Country. It has a great archive with a lot of country tabs.
Rockin Tabs
Are you looking for a site that has rock guitar tabs? Then Rockintabs.com is the place for you. It is a budding site with many rock guitar tabs. Submit your tab today.
Tab Gallery
Tab Gallery has a compilation of christian, rock, and country tabs all in one place. Come visit us.