Guitar Tabs
song title    band name

Join Us Today!

Don't strum alone...
be a part of the largest online Christian music community. Browse thousands of guitar tabs and chat w/ musicians like yourself.


It's Free!

This tab has not yet been rated for accuracy.Sorry, but you must be logged in to rate this tab.
Click here to log-in, or you can click here to register.
(Registration is free)

All songs owned by corresponding publishing company. If you make copies of any song on this website, be sure to report your usage to CCLI.
Submitted by: sanctusfan14

song:I'm Not Backing Down
album:Photographs and Tidlewaves
band:Holland
tabber:josh B

tune down 1/2 step

intro gtr 1
C5 G5 F5 A5 G5 F5

intro gtr 2

eb-------------------
bb---5---5---5--5h6p5
gb-5---5---5--------- x2
db-------------------
ab-------------------
eb-------------------

verse

eb-x
bb-x
gb--------------------------------------------------------5-5-5-----------
db-3-x-x-3-x-x-x-3-3-3-3--x-x-5-x-x-5-x-x-x-5-5-5-5--x-x--5-5-5-5-5-5-5-5-
ab-3-x-x-3-x-x-x-3-3-3-3--x-x-5-x-x-5-x-x-x-5-5-5-5--x-x--3-3-3-2-2-2-2-2-
eb-1-x-x-1-x-x-x-1-1-1-1--x-x-3-x-x-3-x-x-x-3-3-3-3--x-x------------------

verse cont.

eb-x
bb-x
gb-x
db-7-7-7-7-5-5-5--5--5-5
ab-7-7-7-7-5-5-5--5--5-5
eb-5-5-5-5-3-3-3--3--3-3

pre-chorus

eb-x
bb-x
gb-7
db-7(x21)
ab-5
eb-x

chorus gtr 1

eb-x
bb-x
gb-5-5-5-5-5-5-5-5-5-5-5----------------------------------------------------
db-5-5-5-5-5-5-3-3-3-3-3-5-5-5-5-5-5-5-5-5-5-5-5-3-3-3-3-3-3-3-3-3-7-7-7-7-7
ab-3-3-3-3-3-3-3-3-3-3-3-5-5-5-5-5-5-5-5-5-5-5-5-3-3-3-3-3-3-3-3-3-7-7-7-7-7
eb-----------------------3-3-3-3-3-3-3-3-3-3-3-3-1-1-1-1-1-1-1-1-1-5-5-5-5-5

chorus gtr 1 cont.

eb-x
bb-x
gb-x
db-5-5-5-5-5
ab-5-5-5-5-5
eb-3-3-3-3-3

chorus gtr 2

eb-x
bb-3/5-----5\1--1/8--8---8/10--------------------------
gb-----------------------------7/9---------------------
db----------------------------------9/10--10\9--9---9\5
ab-x
eb-x

bridge

eb-x
bb-x
gb-0-------------------------------------------5-5-5-5-5-5----------
db-3-3-3-3-3-3-3-3-3-3-3-5-5-5-5-5-5-5-5-5-5-5-5-5-5-5-5-5-5-5-5-5-5
ab-3-3-3-3-3-3-3-3-3-3-3-5-5-5-5-5-5-5-5-5-5-5-3-3-3-3-3-3-5-5-5-5-5
eb-1-1-1-1-1-1-1-1-1-1-1-3-3-3-3-3-3-3-3-3-3-3-------------3-3-3-3-3

bridge cont.

eb-x
bb-x
gb-x
db-3-3-3-3-3-3-3-3-5-5-5-3-3-3-3-3-3-3-3-3-3-3-5-5-5-5-5-5-5-5-5-5-5
ab-3-3-3-3-3-3-3-3-5-5-5-3-3-3-3-3-3-3-3-3-3-3-5-5-5-5-5-5-5-5-5-5-5
eb-1-1-1-1-1-1-1-1-3-3-3-1-1-1-1-1-1-1-1-1-1-1-3-3-3-3-3-3-3-3-3-3-3

gtr solo

eb-x
bb-5---5-------5----5/6\3--3/5-5-5-3------------------------------------
gb---5---5--5-----5-------------------2/5-----------7/9--7--------------
db-----------------------------------------5/7-5/7----------7/10--5---5\
ab-x
eb-x

ending(where it starts going know this by no over and over till the very end)
there r two gtr parts here

eb-x
bb-------------------------------------5/6\-3------------------
gb-0-----------------4/5---5\4----4-------------5-------5/6--\5
db-3-3-3-3-3-3-3-3-3-7--7--7--7-5-5-5-5-5-5-5-3-3-3-3-3-3-3-3-3
ab-3-3-3-3-3-3-3-3-3-7--7--7--5-7-5-5-5-5-5-5-3-3-3-3-3-3-3-3-3
eb-1-1-1-1-1-1-1-1-1-5--5--5--5-5-3-3-3-3-3-3-1-1-1-1-1-1-1-1-1

ending cont.

eb-x
bb-----------0------1----
gb-5--------------------2
db-7--7--7-7-5---5--5-5-3
ab-7--7--7-7-5---5--5-5-3
eb-5--5--5-5-3---3--3-3-1

ok thats it email me with questions(supersk8er787@usapathway.com)
this song is sweet God Bless.....Josh B

Comments about this tab

dr.fiveirony - 2005-08-09

sounds good but is this all you have of Holland? I also am having a hard time finding The Lonely Hearts tabs.


Add a comment/correction

Complimentary Christian Ringtones
Dadamobile and CGR have teamed up to bring your favorite Christian artists right to your phone. Sign up today and get 10 complementary ringtones!
Tab Country
Did you know CGR has a sister site w/ country guitar tabs? Well we do! Its called Tab Country. It has a great archive with a lot of country tabs.
Rockin Tabs
Are you looking for a site that has rock guitar tabs? Then Rockintabs.com is the place for you. It is a budding site with many rock guitar tabs. Submit your tab today.
Tab Gallery
Tab Gallery has a compilation of christian, rock, and country tabs all in one place. Come visit us.