Guitar Tabs
song title    band name

Join Us Today!

Don't strum alone...
be a part of the largest online Christian music community. Browse thousands of guitar tabs and chat w/ musicians like yourself.


It's Free!

This tab has not yet been rated for accuracy.Sorry, but you must be logged in to rate this tab.
Click here to log-in, or you can click here to register.
(Registration is free)

All songs owned by corresponding publishing company. If you make copies of any song on this website, be sure to report your usage to CCLI.
Submitted by: scheller

Mountains High
Delirious?
Album: World Service
C 2003 Curious? UK

Transcribed by scheller   sonnyschell@hotmail.com
I've tabbed all parts for this song (piano/strings/bass/guitar) 
and you can get the sheet music/powertab here: 
http://www.christianguitar.org/forums/showthread.php?p=1434522
&posted=1#post1434522

Also, some of the chord names reflect the bass root (like the E/G# etc)
but the piano doesn't actually play the bass root.


 Verse 1
  Gtr I (piano arranged for guitar)
  F     G       Am            F     G       Am       G
|-------------|-------------|-------------|--------------|
|-1--1--3--3--|-5--5--5--5--|-1--1--3--3--|-5--5--5--3---|
|-2--2--4--4--|-5--5--5--5--|-2--2--4--4--|-5--5--5--4---|
|-3--3--5--5--|-7--7--7--7--|-3--3--5--5--|-7--7--7--5---|
|-------------|-------------|-------------|--------------|
|-------------|-------------|-------------|--------------|

  F     G       Am            F     G      Amadd9 Am G
|-------------|-------------|-------------|-------------||
|-1--1--3--3--|-5--5--5--5--|-1--1--3--3--|-5--5--5--3--||
|-2--2--4--4--|-5--5--5--5--|-2--2--4--4--|-5--5--5--4--||
|-3--3--5--5--|-7--7--7--7--|-3--3--5--5--|-9--9--7--5--||
|-------------|-------------|-------------|-------------||
|-------------|-------------|-------------|-------------||


 Chorus 1
  F     E/G#    Am   G/B C    F     E/G#    Am   G/B C
|-------0-----|-0--0--------|-------0-----|-0--0--------||
|-1--1--0--0--|-1--1--3--5--|-1--1--0--0--|-1--1--3--5--||
|-2--2--1--1--|-2--2--0--5--|-2--2--1--1--|-2--2--0--5--||
|-3--3-----2--|----------5--|-3--3-----2--|----------5--||
|-------------|-------2--3--|-------------|-------2--3--||
|-------------|-------------|-------------|-------------||

  F                           F Am
|-------------|-------------|--------------|
|-1--1--1--1--|-1--1--1--1--|-1------------|
|-2--2--2--2--|-2--2--2--2--|-2------------|
|-3--3--3--3--|-3--3--3--3--|-3p2----------|
|-------------|-------------|--------------|
|-------------|-------------|--------------|


  Verse 2
    F     G       Am            F     G      Amadd9 Am G    2x
||--------------|-------------|-------------|---------------||
||o-1--1--3--3--|-5--5--5--5--|-1--1--3--3--|-5--5--5--3---o||
||--2--2--4--4--|-5--5--5--5--|-2--2--4--4--|-5--5--5--4----||
||--3--3--5--5--|-7--7--7--7--|-3--3--5--5--|-9--9--7--5----||
||o-------------|-------------|-------------|--------------o||
||--------------|-------------|-------------|---------------||


  Chorus 2
    Riff A
    F      E/G#    Am   G/B C    F      E/G#    Am   G/B C    2x
||---------0-----|-0--0--------|--------0-----|-0--0----------||
||o-1---1--0--0--|-1--1--3--5--|-1---1--0--0--|-1--1--3--5---o||
||--2---2--1--1--|-2--2--0--5--|-2---2--1--1--|-2--2--0--5----||
||--3---3-----2--|----------5--|-3---3-----2--|----------5----||
||o--------------|-------2--3--|--------------|-------2--3---o||
||---------------|-------------|--------------|---------------||
|
|   Riff B
|   Gtr II (strings arranged for guitar)
||---------------|----------0--|--------------|----------0----||
||o--------0-----|-1-----3-----|--------0-----|-1-----3------o||
||--2---2--------|-------------|-2---2--------|---------------||
||----3----------|-------------|---3----------|---------------||
||o--------------|-------------|--------------|--------------o||
||---------------|-------------|--------------|---------------||


 Interlude (Piano and Strings continue playing Riffs A/B until notated 
            otherwise)
  Gtr III (clean w/ effects)
  F       E/G#      Am      G/B C     F       E/G#      Am      G/B C
|-----------------|-------------0---|-----------------|-------------0---|
|-3---1---0---3---|-1---1---3-------|-3---1---0---3---|-1---1---3-------|
|---2---2---1---1-|---2---2---2---2-|---2---2---1---1-|---2---2---2---2-|
|-----------------|-----------------|-----------------|-----------------|
|-----------------|-----------------|-----------------|-----------------|
|-----------------|-----------------|-----------------|-----------------|


  F       E/G#      Am      G/B C     F       E/G#      Am      G/B C
|-1---------------|-------------0---|-1---------------|-------------0----||
|-----1---0---3---|-1---1---3-------|-----1---0---3---|-1---1---3-----3/-||
|---2---2---1---1-|---2---2---2---2-|---2---2---1---1-|---2---2---2------||
|-----------------|-----------------|-----------------|------------------||
|-----------------|-----------------|-----------------|------------------||
|-----------------|-----------------|-----------------|------------------||


 Outro
  F           E             Am          G/B   C
  (distortion)
|-------------------------|-------------------------|
|-13----13----12----12----|-13----13----15----17----|
|----14----14----13----13-|----14----14----14----14-|
|-------------------------|-------------------------|
|-------------------------|-------------------------|
|-------------------------|-------------------------|

  F           E             Am          G/B   C
|-------------------------|-------------------------|
|-13----13----12----12----|-13----13----15----17----|
|----14----14----13----13-|----14----14----14----14-|
|-------------------------|-------------------------|
|-------------------------|-------------------------|
|-------------------------|-------------------------|

  F           E/G#          Am          G/B   C
|-13----------------------|-------------------------------|
|-------13----12----15----|-13-15-17-13-15-17-15p13-15p13-|
|----14----14----13----13-|-------------------------------|
|-------------------------|-------------------------------|
|-------------------------|-------------------------------|
|-------------------------|-------------------------------|

  F           E/G#          Am      G/B C
|-13----------------------|---------12--15--|
|-------13----12----15----|-13--15----------|
|----14----14----13----13-|-----------------|
|-------------------------|-----------------|
|-------------------------|-----------------|
|-------------------------|-----------------|

  F         E/G#        Am      G/B C
|-17--------16--------|---------12--15--|
|----18--------17-----|-13--15----------|
|-------17--------16--|-----------------|
|---------------------|-----------------|
|---------------------|-----------------|
|---------------------|-----------------|

  F         E/G#        Am      G/B    C
|-17--------16--------|-17--19--19b20--19b20--|
|----18--------17-----|-----------------------|
|-------17--------16--|-----------------------|
|---------------------|-----------------------|
|---------------------|-----------------------|
|---------------------|-----------------------|


  Piano continues playing Riff A
  F              E/G#     Am      G/B C
  Strings:
|-----------------------|-----------------|
|-----------------------|-----------------|
|--2--------------------|-----------------|
|-----------------2-----|-----------------|
|-----------------------|--0-------2---3--|
|-----------------------|-----------------|
|
|                 ~~~~~~  ~~~ ~~~
|-19b20r---------19-----|-17--17--15------|
|-----------------------|-------------17--|
|-----------------------|-----------------|
|-----------------------|-----------------|
|-----------------------|-----------------|
|-----------------------|-----------------|

  F               E/G#          Am            G/B   C
|-----------------------------|---------------------------|
|-----------------------------|----------------0-----1----|
|---------------------------1-|---2-----------------------|
|--3---------------2---2------|---------------------------|
|-----------------------------|---------------------------|
|-----------------------------|---------------------------|
|
|   *hold bend     ~~
|-19b20===19r-----19--21b22---|-(20)\--19b20--20-20-19p17-|
|-----------------------------|---------------------------|
|-----------------------------|---------------------------|
|-----------------------------|---------------------------|
|-----------------------------|---------------------------|
|-----------------------------|---------------------------|

  F           E/G#          Am          G/B   C
|-------------------------|-------------------------|
|-------------------------|-------------------------|
|-------------------------|-------------------------|
|--3-----------2----------|-------------------------|
|-------------------------|--0-----------2-----3----|
|-------------------------|-------------------------|
|
|-17----------16----------|-17----17----19----20----|
|----18-18-------17-17----|----17----17----17----17-|
|----------17----------16-|-------------------------|
|-------------------------|-------------------------|
|-------------------------|-------------------------|
|-------------------------|-------------------------|

  F           E/G#          Am          G/B   C
|-------------------------|-------------------------|
|-------------------------|--------------0-----1----|
|-----------------------1-|--2----------------------|
|--3-----------2-----2----|-------------------------|
|-------------------------|-------------------------|
|-------------------------|-------------------------|
|
|-17----------16----------|-17----17----19----20----|
|----18-18-------17-17----|----17----17----17----17-|
|----------17----------16-|-------------------------|
|-------------------------|-------------------------|
|-------------------------|-------------------------|
|-------------------------|-------------------------|


   F           E/G#          Am          G/B   C     Am/F
|--------------0----------|--0-----0--------------|--0--------|---------|
|--1-----1-----0-----0----|--1-----1-----3-----5--|--1--------|---------|
|--2-----2-----1-----1----|--2-----2-----0-----5--|--2--------|---------|
|--3-----3-----------2----|--------------------5--|-----------|---------|
|-------------------------|--------------2-----3--|-----------|---------|
|-------------------------|-----------------------|-----------|---------|
|
|-------------------------|-----------------------|-----------|---------|
|-------------------------|-----------------------|-----------|---------|
|-------------------------|-----------------------|-----------|---------|
|--3-----------2----------|-----------------------|-----------|---------|
|-------------------------|--0-----------2-----3--|-----------|---------|
|-------------------------|-----------------------|-----------|---------|
|
|-17----------16----------|-17----17----19----20--|-----------|---------|
|----18-18-------17-17----|----17----17----17-----|-17--------|---------|
|----------17----------16-|-----------------------|-----------|---------|
|-------------------------|-----------------------|-----------|---------|
|-------------------------|-----------------------|-----------|---------|
|-------------------------|-----------------------|-----------|---------|


 Strings play this at the very end
|-------------|------------|------------1--|------0----5--|------7--8----*|
|-------------|------------|------0--1-----|--------------|--------------*|
|-------------|---2-1---2--|---------------|--------------|--------------*|
|-------------|------------|---------------|--------------|--------------*|
|-------------|------------|---------------|--------------|--------------*|
|-------------|------------|---------------|--------------|--------------*|


Generated using Power Tab Editor by Brad Larsen
http://power-tab.net

Comments about this tab

Delirious Ste - 2006-07-11

Wow, this is really great! I would have never thought of doin strings for guitar, good idea! Great job. God bless


Add a comment/correction

Complimentary Christian Ringtones
Dadamobile and CGR have teamed up to bring your favorite Christian artists right to your phone. Sign up today and get 10 complementary ringtones!
Tab Country
Did you know CGR has a sister site w/ country guitar tabs? Well we do! Its called Tab Country. It has a great archive with a lot of country tabs.
Rockin Tabs
Are you looking for a site that has rock guitar tabs? Then Rockintabs.com is the place for you. It is a budding site with many rock guitar tabs. Submit your tab today.
Tab Gallery
Tab Gallery has a compilation of christian, rock, and country tabs all in one place. Come visit us.