Guitar Tabs
song title    band name

Join Us Today!

Don't strum alone...
be a part of the largest online Christian music community. Browse thousands of guitar tabs and chat w/ musicians like yourself.


It's Free!

This tab has been rated a 2.50 out of 5 for accuracy. (2 votes)Sorry, but you must be logged in to rate this tab.
Click here to log-in, or you can click here to register.
(Registration is free)

All songs owned by corresponding publishing company. If you make copies of any song on this website, be sure to report your usage to CCLI.
Submitted by: acoustic90

Song by:Switchfoot
Song: Only Hope
transcribed by: Eric North (erksacoustic@hotmail.com)


I've seen a lot of tabs for this song and some of them are just a bit off.
so I decided to try to make one.
I put them together so you could see the timing
(sounds awesome with two guitars)

the dashes represent words so you can put them in later

Em |0| G |0| C |0| B |0| 
   |0|   |3|   |3|   |0|
   |0|   |0|   |0|   |4|
   |2|   |0|   |2|   |4|
   |2|   |2|   |3|   |2|
   |0|   |3|   |-|   |-|

Intro:


     1st guitar
    Em          G            Em          Em           C    
E  :-------------------|-------------------|-------------------|
B  :-------------------|-------------------|----0-----------3--|
G  :------0-----------0|-----------0-------|--0-----0-----0----|
D  :----2-----2-----0--|---0-----2-----2---|-------------------|
A  :-------------------|-----------------2-|----------3--------|
E  :0-----------3------|-----0-------------|-------------------|
     2nd guitar
    
E  :-------------------|-------------------|-------------------|
B  :-------------------|-------------------|-------------------|
G  :-------------------|-----7-------9---4-|--7---7---7---5-4--|
D  :----------7/9------|-------------------|-------------------|
A  :2/7----------------|-------------------|-------------------|
E  :-------------------|-------------------|-------------------|

===============================================================
     1st guitar
       G           C            B 
E  :-------------------|-------------------|
B  :---------3---------|--3----------------|
G  :-0-----0-----0-----|0-----0-------4----|
D  :-------------------|------------4-----4|
A  :---------------3---|--------2----------|
E  :---3---------------|-------------------|
     2nd guitar  
E  :-------------------|-------------------|
B  :-------------------|-------------------|
G  :---4---2-0---------|-------------------|
D  :---------------2---|4-5-----4---2---1--|
A  :-------------------|-------------------|
E  :-------------------|-------------------|

 
1st Verse:


   Em          G            Em          Em           C    
E  :-------------------|-------------------|-------------------|
B  :-------------------|-------------------|----0-----------3--|
G  :------0-----------0|-----------0-------|--0-----0-----0----|
D  :----2-----2-----0--|---0-----2-----2---|-------------------|
A  :-------------------|-----------------2-|----------3--------|
E  :0-----------3------|-----0-------------|-------------------|

       G           C            B 
E  :-------------------|-------------------|repeat twice
B  :---------3---------|--3----------------|
G  :-0-----0-----0-----|0-----0-------4----|
D  :-------------------|------------4-----4|
A  :---------------3---|--------2----------|
E  :---3---------------|-------------------|


chorus:

     E      B         A
-- - --- -- ---- ---- ----
      E       B           A          C#M     
--- - ---- -- ---- --- - ---- -- -- ---- -----
  A          C#M
- ---- -- -- ---- -----
  C                  
- ---- --- ----- -- ---- ----

2nd Verse:

Em      G      Em           C      G     C     B 
---- -- -- --- ----- -- --- -----
Em      G      Em           C           G         C    B 
-- ---- ------ ------- --- -------- --- -------- -----
Em      G        Em               C     G     C     B
---- - ---- ---- -- ----- --- -- ---
Em      G         Em             C           G     C    B
---- -- -- -- --- ----- ---- --- ---- --- -- ---- -----

Chorus:

     E      B         A
-- - --- -- ---- ---- ----
      E       B           A          C#M     
--- - ---- -- ---- --- - ---- -- -- ---- -----
  A          C#M
- ---- -- -- ---- -----
  C                  
- ---- --- ----- -- ---- ----     

1st part of bridge:


E :-------------------------------------------------|X2
B :-------------------------------------------------|
G :----4-4---4-4---------4-4---------4-4------------|
D :--2-----0-------4-4-2-------5-5-0-------5-5---4-4|
A :--------------2-----------3-----------3-----2----|
E :-------------------------------------------------|


2nd part of Bridge:


D     Em
D     Em 
D     Em
F#7   B
A     B
A     B


  E      B         A
-- - --- -- ---- ---- ----
      E       B           A          C#M     
--- - ---- -- ---- --- - ---- -- -- ---- -----
  A          C#M
- ---- -- -- ---- -----
 A          C#M
- ---- -- -- ---- -----
  C                  
- ---- --- ----- -- ---- ----     

Ending:
================================================================
     1st guitar
    Em          G            Em          Em           C    
E  :-------------------|-------------------|-------------------|
B  :-------------------|-------------------|----0-----------3--|
G  :------0-----------0|-----------0-------|--0-----0-----0----|
D  :----2-----2-----0--|---0-----2-----2---|-------------------|
A  :-------------------|-----------------2-|----------3--------|
E  :0-----------3------|-----0-------------|-------------------|
     2nd guitar
    
E  :-------------------|-------------------|-------------------|
B  :-------------------|-------------------|-------------------|
G  :-------------------|-----7-------9---4-|--7---7---7---5-4--|
D  :----------7/9------|-------------------|-------------------|
A  :2/7----------------|-------------------|-------------------|
E  :-------------------|-------------------|-------------------|

===============================================================
     1st guitar
       G           C            B 
E  :-------------------|-------------------|X2
B  :---------3---------|--3----------------|
G  :-0-----0-----0-----|0-----0-------4----|
D  :-------------------|------------4-----4|
A  :---------------3---|--------2----------|
E  :---3---------------|-------------------|
     2nd guitar  
E  :-------------------|-------------------|
B  :-------------------|-------------------|
G  :---4---2-0---------|-------------------|
D  :---------------2---|4-5-----4---2---1--|
A  :-------------------|-------------------|
E  :-------------------|-------------------|


That's it! Questions? email me at erksacoustic@hotmail.com
Rock on!

Comments about this tab

No comments/corrections found. Add your own

Complimentary Christian Ringtones
Dadamobile and CGR have teamed up to bring your favorite Christian artists right to your phone. Sign up today and get 10 complementary ringtones!
Tab Country
Did you know CGR has a sister site w/ country guitar tabs? Well we do! Its called Tab Country. It has a great archive with a lot of country tabs.
Rockin Tabs
Are you looking for a site that has rock guitar tabs? Then Rockintabs.com is the place for you. It is a budding site with many rock guitar tabs. Submit your tab today.
Tab Gallery
Tab Gallery has a compilation of christian, rock, and country tabs all in one place. Come visit us.