Guitar Tabs
song title    band name

Join Us Today!

Don't strum alone...
be a part of the largest online Christian music community. Browse thousands of guitar tabs and chat w/ musicians like yourself.


It's Free!

This tab has been rated a 3.38 out of 5 for accuracy. (21 votes)Sorry, but you must be logged in to rate this tab.
Click here to log-in, or you can click here to register.
(Registration is free)

All songs owned by corresponding publishing company. If you make copies of any song on this website, be sure to report your usage to CCLI.
Submitted by: josh mirthing

Dare You to Move
Switchfoot
The Beautiful Letdown

Intro:
B-10--------------
G----9----11-----9
E   A
E   A

V1
E    A
E    A
F#m  B
E    A
E    A
F#m  B
Chorus:
E    B
A    B
E    B
A    B
Go back to intro
V2
C#m  B A
C#m  B A
F#m  B A
C#m  B A
F#m  B A

Chorus

Bridge
E   A
E   A
C#m A
F#m B

Then he does this weird thing up on the 7th,9th,12th,14th and 19th
then is goes intho the chorus which goes like this

End Chorus:
E    B
A    B
E    B 
A    C#M
A    B
E

Comments about this tab

JESUSFAN7 - 2004-08-22

could u put the words with the chords plz. Thnx


Andrew Kostrna - 2004-08-23

would you please put the lyrics to this song, it would be so helpful!


Natron - 2004-09-03

it needs lyrics


vaultingrules - 2004-09-21

good tab, really helpful. One thing that I want to add though. The chords are played in an open type chord. I don't know the actual name for it. but anyways here are the chords that the song sounds like it's played in

E- 079900
B- 099800 or 024400 (you can listen to the song to figure out when to play which)
A- 077600 or 022000 (same as above)
C#m- 046600
F#m normal bar chord (244222)

It's up to you and sometime in the song it may sound better to do the regular chords, just listen and decide what's best for you.


madasatabber - 2004-09-29

You might be able to play the F#m as an open chord as well its 044200 or x442oo . Relient K uses this in song's like Getting into you, ect.


slepwlkngParody - 2004-10-26

Welcome to the planet
Welcome to existence
Everyone's here
Everyone's watching you now
Everybody waits for you now
What happens next?

I dare you to move
I dare you to lift yourself up off the floor
I dare you to move
Like today never happened
Today never happened before

Welcome to the fallout
Welcome to resistance
The tension is here
Between who you are and who you could be
Between how it is and how it should be

Maybe redemption has stories to tell
maybe forgiveness is right where you fell
Where can you run to escape from yourself?
Where you gonna go?
Where you gonna go?
Salvation is here


i dont know - 2004-10-26

try this for the intro

d--11-11-11---11-11-11---11-11-11---9--9--9--9--9--9--9--7--7--7--7--7--7--7
g--9--9--9----9--9--9----9--9--9----9--9--9--9--9--9--9--9--9--9--9--9--9--9
b--12-12-12---0--0--0----9--9--9----0--0--0--0--0--0--0--0--0--0--0--0--0--0
e--0--0--0----0--0--0----0--0--0----0--0--0--0--0--0--0--0--0--0--0--0--0--0

then let that last one ring and play that again however many times
i'm pretty sure that's right or at least real close


xxkrzaznxx - 2004-11-20

this is the correct intro.. it starts with B barre chord with the base note on the A string then u use different chords buts its still gonna be in the melody of the B barre chord but this is how i think it is its x79997 then xx799x then x799xx thats wut i think cuz u use the melody of the b chords and if u listen closely i juss might be right


LesPaulLuke - 2004-12-01

Hey in the real song that guitar solo after the "salavation is here" is played by a les paul


GLO28 - 2004-12-09

B suspended sounds better than the regular b chord to me...


bigfatape828 - 2004-12-10

i was watching a video where they played this and i am know they playd the intro up around 11 or 9 i wasn't paying much attention, and they didn't barr anything


Dancer3 - 2004-12-12

Hey, i've been dyin' to learn this song. sounds great. thanx


coolcowboy - 2005-03-14

Hey I just registered to this site after trying to verify on how I think "Dare You To Move" is played.... I've had people tell me it sounds just like it, but chances are it's just because of how it sounds but I like to play that song from intro to end with these types of chords, just figure out when to play them... (0)79900 (pinky used on and off with extra note: (0)79990) then slide "up" (<--pitch) to (0)9[11][11]00 then slide back "down" (0)79900 on and off (0)79990 (time it right with song) continue back and forth with that pattern and I'll send the rest later.... night later God bless


gfg41 - 2005-03-31

your tab introo is very off but your chrods are pretty acurate


gfg41 - 2005-03-31

your tab intro is very off but your chrods aren't very acurate in the second verse you'd know that if you'd have played it with the cd


Runnef - 2005-04-07

The Intro Is Way Off. This is what it really is.

E6 E5 E E5 Esus

I have the song book so I know it's right. This played in the first verse too.


irocc211 - 2005-04-14

there was a ver. of God of wounders (by Marc Byrd and Steve Hindalong) that was formatted great had the words and the notes and how 2 play the notes case u dont no how 2 play a certain note.


Fenderdude4chri - 2005-05-02

actually it is in drop d and it goes like this

Intro:
e-------------------------------------------------------
b-------------------------------------------------------
g-444--------222----------------------------------------
d-444-4b5b4--222--4b5b4--222--4b5b4--5555--77-----------
a-222--------------------222---------5555--77-----------
d------------------------222---------5555--77-----------

^ = pull off

Verse:
e---------------------------------------------------------------
b---------------------------------------------------------------
g---------------------------------------------------------------
d-------------------------------------------------------------5-
a-------------------------------------------------------------5-
d--4^00--2^00--4^00--2^00--454--4^00--2^00-4^00--2^00--457----5-


Chorus:

e-------------------------------------------------------------------
b-------------------------------------------------------------------
g-------------------------------------------------------------------
d--555--xxx--777--xxx--999--xxx--222--xxx--555--xxx--222--xxx--555--
a--555--xxx--777--xxx--999--xxx--222--xxx--555--xxx--222--xxx--555--
d--555--xxx--777--xxx--999--xxx--222--xxx--555--xxx--222--xxx--555-- and so on

hope this helps


God bless



FenderNl05 - 2005-05-05

How about tis for the intro?!?!?!?

E|-------------------0-0-0-0-|
B|-12-12-----9-9-----0-0-0-0-|
G|-9--9--9-9-9-9-9-9-9-9-9-9-|
D|-11-11-9-9-9-9-9-9-7-7-7-7-|
A|---------------------------|
E|---------------------------|

God Bless


BlackAttack1287 - 2005-06-02

Umm....Fenderdude4chri, I believe that if I played your tab, I would be playing "Meant To Live" not "Dare You To Move".


guitarplayer67 - 2005-06-24

ya fender dude. that is meant to live. but at least you tabbed meant to live rite is rite


D MAn - 2005-07-07

Dude I totaly Agree with the other peaple on this one you so need the lyrics for this!!!!!!!!!!!!!!!


PeepsRock16 - 2005-07-15

u cant cause of copywrites and stuff


bro_in_christ - 2006-01-30

I'm sorry, but you guys have the intro all wrong. The correct intro is this:

e--7-7-7-0-0-0-0-0-0-0-0-0-0-0-0-0--|
B--0-0-0-0-0-0-9-9-9-0-0-0-0-0-0-0--|
G--9-9-9-9-9-9-9-9-9-9-9-9-9-9-9-9--|
D--x-x-x-x-x-x-x-x-x-x-x-x-x-x-x-x--|
A--x-x-x-x-x-x-x-x-x-x-x-x-x-x-x-x--|
E--x-x-x-x-x-x-x-x-x-x-x-x-x-x-x-x--|

|-0-0-0-0-0-0-0-0-0-0-0-0-0-0-0-0--|
|-0-0-0-0-0-0-0-0-0-0-0-0-0-0-0-0--|
|-9-9-9-9-9-9-9-9-9-9-9-9-9-9-9-9--|
|-7-7-7-7-7-7-7-7-7-7-7-7-7-7-7-7--|
|-x-x-x-x-x-x-x-x-x-x-x-x-x-x-x-x--|
|-x-x-x-x-x-x-x-x-x-x-x-x-x-x-x-x--|

Also, the song is done in power chords, just to point that out.

And as for the solo:

/ -slide
b -bend

e--0-0-0-0-0-0-0-0-0-0-0-0-0-0-0-0-0-0-0-0--|
B--7-7-7/9-5-5-5-5-5-5-5-5-5-5-5-5-5-5-5-5--|
G--x-x-x-x-x-x-x-x-x-x-x-x-x-x-x-x-x-x-x-x--|
D--x-x-x-x-x-x-x-x-x-x-x-x-x-x-x-x-x-x-x-x--|
A--x-x-x-x-x-x-x-x-x-x-x-x-x-x-x-x-x-x-x-x--|
E--x-x-x-x-x-x-x-x-x-x-x-x-x-x-x-x-x-x-x-x--|

|--0--0--0--0--0--0--0--0--0--0--0--0--0--0--0--0--|
|-/10-10-10-10-10-10-10-10-10-10-10-10-10-10-10-10-|
|--x--x--x--x--x--x--x--x--x--x--x--x--x--x--x--x--|
|--x--x--x--x--x--x--x--x--x--x--x--x--x--x--x--x--|
|--x--x--x--x--x--x--x--x--x--x--x--x--x--x--x--x--|
|--x--x--x--x--x--x--x--x--x--x--x--x--x--x--x--x--|

|--0--0--0--0--0--0--0--0--0--0--0--0--0--0--0--0--||--0---|
|-/12-12-12-12-12-12-12-12-12-12-12-12-12-12-12-12-||--14b-|
|--x--x--x--x--x--x--x--x--x--x--x--x--x--x--x--x--||--0---|
|--x--x--x--x--x--x--x--x--x--x--x--x--x--x--x--x--||--0---|
|--x--x--x--x--x--x--x--x--x--x--x--x--x--x--x--x--||--0---|
|--x--x--x--x--x--x--x--x--x--x--x--x--x--x--x--x--||--0---|

If you have any questions about any other parts of the song, e-mail me @
guitarist_4_him@hotmail.com

God Bless.


sk8brd4god - 2006-03-13

tight


m_l_c - 2006-04-15

needs lyrics it's makes it ezier,god bless!!


m_l_c - 2006-05-22

one of my favorites


Jesus_dude - 2007-02-15

hey FenderNl05, u got the intro perfect!!!! its just like in the book, urs is easy to read and down to the point, thnx a bunch, -luis


punkrocka - 2008-05-08

im not shure of the name but its a type of chord wer u play open C
like this
e-5-------
b-5-6-----
g-5-------
d------7--
A--------7
E---------
jus use B string for placement anyhow dar u 2 muv 's intro is lik so

e---777744445554444000---then later-0
b-----55555555555555-------------0
g---444444444444444--------------4
d-------------------
A-------------------
E-------------------
should work al it is is a E chord with sum mods
god bless


Add a comment/correction

Complimentary Christian Ringtones
Dadamobile and CGR have teamed up to bring your favorite Christian artists right to your phone. Sign up today and get 10 complementary ringtones!
Tab Country
Did you know CGR has a sister site w/ country guitar tabs? Well we do! Its called Tab Country. It has a great archive with a lot of country tabs.
Rockin Tabs
Are you looking for a site that has rock guitar tabs? Then Rockintabs.com is the place for you. It is a budding site with many rock guitar tabs. Submit your tab today.
Tab Gallery
Tab Gallery has a compilation of christian, rock, and country tabs all in one place. Come visit us.