Guitar Tabs
song title    band name

Join Us Today!

Don't strum alone...
be a part of the largest online Christian music community. Browse thousands of guitar tabs and chat w/ musicians like yourself.


It's Free!

This tab has been rated a 5.00 out of 5 for accuracy. (1 vote)Sorry, but you must be logged in to rate this tab.
Click here to log-in, or you can click here to register.
(Registration is free)

All songs owned by corresponding publishing company. If you make copies of any song on this website, be sure to report your usage to CCLI.
Submitted by: Symbiotic

Song: Home is Here
Artist: Dogwood
Copyright: 2003 Tooth & Nail
Tabbed by: Joel

I haven't quite finished the bridge yet, and I won't get it done until the end
of summer because I'm going away.  But as soon as I get back, I'll finish it, 
and submit it.

Select your pick-ups closest to your bridge for the first time through the
Intro, then switch to your pick-ups furthest from the bridge for 
the rest of the song.

Standard Tuning

Intro/Verse:
e|------------------------------------------------------
B|------------------------------------------------------
G|-7-7-7-7---10-10-10-----------------------------------
D|-7-7-7-7---10-10-10---10-10-10-10-10-10-10-10---------
A|-5-5-5-5---8--8--8----10-10-10-10-10-10-10-10---------
E|----------------------8--8--8--8--8--8--8--8----------

Chorus:
Part 1:x1 
e|------------------------------------------------------
B|------------------------------------------------------
G|-5-7-7-7---------7-7-7-7-7-7-7-7--9-9-9-9-9-9-9-9-9---
D|-5-7-7-7---(X3)--7-7-7-7-7-7-7-7--9-9-9-9-9-9-9-9-9---
A|-3-5-5-5---------5-5-5-5-5-5-5-5--7-7-7-7-7-7-7-7-7---
E|------------------------------------------------------

Part 2: the rest of the time
e|------------------------------------------------------------
B|------------------------------------------------------------
G|-5-7-7-7--------5-7-9-10-9-7-7-7-7-7-7-7--9-9-9-9-9-9-9-9-9-
D|-5-7-7-7---(X3)-5-7-9-10-9-7-7-7-7-7-7-7--9-9-9-9-9-9-9-9-9-
A|-3-5-5-5--------3-5-7-8--7-5-5-5-5-5-5-5--7-7-7-7-7-7-7-7-7-
E|------------------------------------------------------------

Verse Fill
e|-------------------------------------
B|-6-5--10-8--6-5-10p8p6\5-10-8-6------
G|-------------------------------------
D|-------------------------------------
A|-----You can also just play the verse riff here
E|-------------------------------------

That's all for now.  Please rate it.  Any questions or comments?...e-mail me at
conceived__in__fire@hotmail.com  (that's double _'s by the way)
:)

Comments about this tab

No comments/corrections found. Add your own

Complimentary Christian Ringtones
Dadamobile and CGR have teamed up to bring your favorite Christian artists right to your phone. Sign up today and get 10 complementary ringtones!
Tab Country
Did you know CGR has a sister site w/ country guitar tabs? Well we do! Its called Tab Country. It has a great archive with a lot of country tabs.
Rockin Tabs
Are you looking for a site that has rock guitar tabs? Then Rockintabs.com is the place for you. It is a budding site with many rock guitar tabs. Submit your tab today.
Tab Gallery
Tab Gallery has a compilation of christian, rock, and country tabs all in one place. Come visit us.