Guitar Tabs
song title    band name

Join Us Today!

Don't strum alone...
be a part of the largest online Christian music community. Browse thousands of guitar tabs and chat w/ musicians like yourself.


It's Free!

This tab has been rated a 5.00 out of 5 for accuracy. (7 votes)Sorry, but you must be logged in to rate this tab.
Click here to log-in, or you can click here to register.
(Registration is free)

All songs owned by corresponding publishing company. If you make copies of any song on this website, be sure to report your usage to CCLI.
Submitted by: CAb00se

FIVE IRON FRENZY
At Least Im Not Like Those Other Guys
Tabbed By Andy Nickols (CAb00se)
feldy64@hotmail.com

im pretty sure this is spot on
although if you find somethin wrong email me cheers


Intro x3 (Sandwich, everyone likes some...sandwiches!)
Both Guitars                     Then
E-----------------------------  -------------------------------
B-----------------------------  -------------------------------
G-2--2----5-------------------x3-------------------------------
D-2--2----5-------------------  -3--3----5--3---/12\-----------
A-0--0----3--0--1--1----------  -3--3----5--3---/12\-----------
E---------------------3--1--0-  -1--1----3--1---/12\-----------
PM           ^  ^  ^  ^  ^  ^


Verse x2 (part 1)

Guitar 1
E-----------------------------------------------------------------------
B-----------------------------------------------------------------------
G--2-------5--------------------------2--------5------------------------
D--2-------5-------3-------5----------2--------5-------3-------2--------
A--0-------3-------3-------5----------0--------3-------3-------2--------
E------------------1-------3---------------------------1-------0--------
PM ^ ^ ^ ^ ^ ^ ^ ^ ^ ^ ^ ^ ^ ^ ^ ^ ^ ^ ^ ^ ^ ^ ^ ^ ^ ^ ^ ^ ^ ^ ^ ^ ^ ^
Guitar 2
E-----------------------------------------------------------------------
B-----------------------------------------------------------------------
G-----------------------------------------------------------------------
D-----------------------------------------------------------------------
A--4-4-4-4-7-7-7-7-8-8-8-8-10-10-10-10-4-4-4-4-7-7-7-7-8-8-8-8-7-7-7-7--
E-----------------------------------------------------------------------


Verse (part 2)

Guitar 1+2
E-----------------------------------------------------------------------
B-----------------------------------------------------------------------
G--7--------5--------------------------7--------5-----------------------
D--7--------5--------7--------8--------7--------5--------7--------8-----
A--5--------3--------7--------8--------5--------3--------7--------8-----
E--------------------5--------6--------------------------5--------6-----

Pre-Chorus

E-----------------------------------------------------------------------
B-----------------------------------------------------------------------
G--10----------------12----------------8------------------10------------
D--10-------10-------12-------12-------8--------8---------10------------
A--8--------10-------10-------12-------6--------8---------8-------------
E-----------8-----------------10----------------6-----------------------

E------------------------------------------------------------------------
B------------------------------------------------------------------------
G-9-10-11--12-----------------13-----------------------------------7-----
D-9-10-11--12--------12-------13-------13-------8---------7--------7-----
A-7-8--9---10--------12-------11-------13-------8---------7--------5-----
E--------------------10----------------11-------6---------5--------------

Repeat intro twice
Repeat Verse twice
Repeat pre chorus
Repeat chorus twice (with solo)

Solo (over first part of second chorus)

E------------------------------------------------------------------------
B-------------------------10-10---10-11-10-------------------------------
G-----10--12--12--10--12--------------------12--10--12b14-12b14-12b14-12\
D--10--------------------------------------------------------------------
A------------------------------------------------------------------------
E------------------------------------------------------------------------

RIP 5Fe
email me if you want any more

Comments about this tab

Rather_Dashing - 2004-12-08

awsome tab. 100% corect. next tab somthing like laughter


Kungfookelly - 2004-12-20

hmm... what does PM stand for?


John8Food - 2004-12-25

Probably Palm Mute


theekevy - 2005-01-01

And just a little note, on "The End is Here" when they play this song live, Micah does hammer-ons instead of bends on the last few notes.


Thechort14 - 2005-02-08

Dude great jaerb but can you possibly tab so far so bad?


lacosseboyoo7 - 2005-04-11

this is great. could you tab the cross of saint andrews???


lacrosseboyoo7 - 2005-04-12

how do you hammer on


cszepv - 2005-04-20

It would be cool if you tabbed out "The Cross of St. Andrew" next. I actually just logged on to see if someone had tabbed it out yet.


dropkicks18 - 2006-03-16

can you PLEASE tab New Years Eve from The End is Near


Add a comment/correction

Complimentary Christian Ringtones
Dadamobile and CGR have teamed up to bring your favorite Christian artists right to your phone. Sign up today and get 10 complementary ringtones!
Tab Country
Did you know CGR has a sister site w/ country guitar tabs? Well we do! Its called Tab Country. It has a great archive with a lot of country tabs.
Rockin Tabs
Are you looking for a site that has rock guitar tabs? Then Rockintabs.com is the place for you. It is a budding site with many rock guitar tabs. Submit your tab today.
Tab Gallery
Tab Gallery has a compilation of christian, rock, and country tabs all in one place. Come visit us.