Guitar Tabs
song title    band name

Join Us Today!

Don't strum alone...
be a part of the largest online Christian music community. Browse thousands of guitar tabs and chat w/ musicians like yourself.


It's Free!

This tab has been rated a 4.78 out of 5 for accuracy. (9 votes)Sorry, but you must be logged in to rate this tab.
Click here to log-in, or you can click here to register.
(Registration is free)

All songs owned by corresponding publishing company. If you make copies of any song on this website, be sure to report your usage to CCLI.
Submitted by: punkmonkey

All I Can Say
David Crowder Band
CD: All I Can Say
1999 Inot Music

Capo 3 - Tabbed relative to capo

Basic Chords: 
G: 320033
D/F#: 200232
C/B: 020033 
C2: 032033

Intro, Verses, Chorus:

   G             D/F#           C/B      C2
e---------------------------------------------------------|
B-----------------3-----0---------------------------------|
G-----------------0h2---2p0----------------------0--------|
D---------0-----------0-----0-----0---------0h2----2------|
A-------2-----------------------2----0h2-3----------------|
E-0h2-3-----------2---------------------------------------|

Right after the chorus, he plays this once or twice:
   G          D/F#       C/B        C2
e----0----------0----------0---------0--------------------|
B------3----------3----------3---------3------------------|
G---------------------------------------------------------|
D---------------------------------------------------------|
A------------------------2----------3---------------------|
E--3----------2-------------------------------------------|


There are a few other tabs here that are almost correct, but they are
missing chunks.

Tabbed by:
Stephanie (punkmonkey)

Comments about this tab

RiNGEiSEN1986 - 2004-09-23

This is really similar, but I think after the chorus he plays this with a little strum in between each one:

G D/F# Em C2
e-----0----------0----------0----------0------------------|
B------3----------3----------3----------3-----------------|
G---0----------2----------0----------0--------------------|
D----0----------0----------2----------2-------------------|
A------------------------2----------3---------------------|
E--3----------2-------------------------------------------|


AcousticServant - 2005-02-12

the 020033 chord is a G/B, not a C/B
good tab :)


Add a comment/correction

Complimentary Christian Ringtones
Dadamobile and CGR have teamed up to bring your favorite Christian artists right to your phone. Sign up today and get 10 complementary ringtones!
Tab Country
Did you know CGR has a sister site w/ country guitar tabs? Well we do! Its called Tab Country. It has a great archive with a lot of country tabs.
Rockin Tabs
Are you looking for a site that has rock guitar tabs? Then Rockintabs.com is the place for you. It is a budding site with many rock guitar tabs. Submit your tab today.
Tab Gallery
Tab Gallery has a compilation of christian, rock, and country tabs all in one place. Come visit us.