Guitar Tabs
song title    band name

Join Us Today!

Don't strum alone...
be a part of the largest online Christian music community. Browse thousands of guitar tabs and chat w/ musicians like yourself.


It's Free!

This tab has been rated a 4.29 out of 5 for accuracy. (14 votes)Sorry, but you must be logged in to rate this tab.
Click here to log-in, or you can click here to register.
(Registration is free)

All songs owned by corresponding publishing company. If you make copies of any song on this website, be sure to report your usage to CCLI.
Submitted by: hangookguy627

Written by Daniel Chae, 7-7-04
Intro:

E--------------------------------------|--------------------------------------|
B------------1--------1-h3-----3-------|-----------3--------5-h3--1--0--------|
G---------0--------0-----------------0-|--------0--------0--------------2--0--|
D-----0h2-------2-----------2-----2----|-----0--------0-----------------------|
A--3-----------------------------------|--2-----------------------------------|
E--------------------------------------|--------------------------------------|
  
E--------------------------------------|--------------------------------------|
B------------0--------0-h1-----5-------|---------------1--------------1-------|
G---------0--------0----------------5--|---------0--2--------2-p0-----------0-|
D-----0h2-------2-----------2----------|-----0h3----------3--------3-----3----|
A--0-----------------------------------|--------------------------------------|
E--------------------------------------|--1-----------------------------------|


E--------------------------------------|--------------------------------------|
B------------1--------1-h3-----3-------|-----------3--------5-h3--1--0--------|
G---------0--------0-----------------0-|--------0--------0--------------2--0--|
D-----0h2-------2-----------2-----2----|-----0--------0-----------------------|
A--3-----------------------------------|--2-----------------------------------|
E--------------------------------------|--------------------------------------|

E------------------------------0-------|--------------------------------------|
B------------0--------0-h1-----------1-|---------------0-h1--1-h3-----1-------|
G---------0--------0-------------------|---------0-h2-----------------------0-|
D-----0h2-------2-----------2-----2----|-----0h2-------------------3-----3----|
A--0-----------------------------------|--------------------------------------|
E--------------------------------------|--1-----------------------------------|


Verse 1:
E--------------------------------------|--------------------------------------|
B------------1-----------------1-------|-----------1-----------------1--------|
G---------0--------0--------0--------0-|--------0--------0--------0--------0--|
D-----0h2-------2-----2-h3--------2----|-----0--------2-----2-h3--------2-----|
A--3-----------------------------------|--2-----------------------------------|
E--------------------------------------|--------------------------------------|
   
E--------------------------------------|--------------------------------------|
B-----------1-----------------1--------|---------------1--------------1-------|
G--------0--------0--------0--------0--|---------0-h2--------2-p0-----------0-|
D-----2--------2-----2-h3--------2-----|-----0h2----------3--------3-----3----|
A--0-----------------------------------|--------------------------------------|
E--------------------------------------|--1-----------------------------------|


E--------------------------------------|--------------------------------------|
B------------1-----------------1-------|-----------1-----------------1--------|
G---------0--------0--------0--------0-|--------0--------0--------0--------0--|
D-----0h2-------2-----2-h3--------2----|-----0--------2-----2-h3--------2-----|
A--3-----------------------------------|--2-----------------------------------|
E--------------------------------------|--------------------------------------|
 
E--------------------------------------|--------------------------------------|
B-----------1-----------------1--------|---------------1--------------1-------|
G--------0--------0--------0--------0--|---------0-h2--------2-p0-----------0-|
D-----2--------2-----2-h3--------2-----|-----0h2----------3--------3-----3----|
A--0-----------------------------------|--------------------------------------|
E--------------------------------------|--1-----------------------------------|


E---------------------3----------------|--------------------3--1--------------|
B------------1-----------------1-------|-----------1-----------------1--------|
G---------0--------0--------0--------0-|--------0--------0--------0--------0--|
D-----0h2-------2--------2--------2----|-----0--------2-----------------2-----|
A--3-----------------------------------|--2-----------------------------------|
E--------------------------------------|--------------------------------------|
 
E--------------------1--0--------------|--------------------------------------|
B-----------1-----------------1--------|---------------0-h1--1-h3-----1-------|
G--------0--------0--------0--------0--|---------0-h2-----------------------0-|
D-----2--------2-----------------2-----|-----0h2-------------------3-----3----|
A--0-----------------------------------|--------------------------------------|
E--------------------------------------|--1-----------------------------------|



Chorus:
E--3-----------------------------------|--3-----------------------------------|
B--1-----------------------------------|--1-----------------------------------|
G--0-----------------------------------|--0-----------------------------------|
D--2-----------------------------------|--0-----------------------------------|
A--3-----------------------------------|--2-----------------------------------|
E--------------------------------------|--------------------------------------|

E--3-----------------------------------|--3-----------------------------------|
B--1-----------------------------------|--1-----------------------------------|
G--0-----------------------------------|--2-----------------------------------|
D--2-----------------------------------|--3-----------------------------------|
A--0-----------------------------------|--x-----------------------------------|
E--x-----------------------------------|--x-----------------------------------|


E--3-----------------------------------|--3-----------------------------------|
B--1-----------------------------------|--1-----------------------------------|
G--0-----------------------------------|--0-----------------------------------|
D--2-----------------------------------|--0-----------------------------------|
A--3-----------------------------------|--2-----------------------------------|
E--------------------------------------|--------------------------------------|

E--3-----------------------------------|--3-----------------------------------|
B--1-----------------------------------|--1-----------------------------------|
G--0-----------------------------------|--2-----------------------------------|
D--2-----------------------------------|--3-----------------------------------|
A--0-----------------------------------|--x-----------------------------------|
E--x-----------------------------------|--x-----------------------------------|



E--------------------------------------|--------------------------------------|
B------------1--------1-h3-----3-------|-----------3--------5-h3--1--0--------|
G---------0--------0-----------------0-|--------0--------0--------------2--0--|
D-----0h2-------2-----------2-----2----|-----0--------0-----------------------|
A--3-----------------------------------|--2-----------------------------------|
E--------------------------------------|--------------------------------------|
  
E--------------------------------------|--------------------------------------|
B------------0--------0-h1-----5-------|---------------1--------------1-------|
G---------0--------0----------------5--|---------0--2--------2-p0-----------0-|
D-----0h2-------2-----------2----------|-----0h3----------3--------3-----3----|
A--0-----------------------------------|--------------------------------------|
E--------------------------------------|--1-----------------------------------|


Verse 2 (same as Verse 1)

Chorus (repeated)

Comments about this tab

mike31 - 2004-10-13

i think the chorus is C , C/B ,Am7 , F

C C/B Am7 F
0 0 0 1
1 1 1 1
0 0 0 2
2 x 2 3
3 2 0 3
0 x 0 1


GuitarFreak333 - 2005-01-13

Hey, I can't read the tabs yet, could you just put down the chord names? Thanks =)


TheJediMaster - 2005-01-30

OK, I would like to know what the "h" in the tabs mean. I know in the tab for "Revive Me" by Jeremy Camp it meant "hammer on". What does taht mean? I'm new at the guitar so I would really appreciate it!


Takamine06 - 2005-02-24

the h means hammer


David wood - 2005-04-28

It mean's when you play a string u put your finger on right after.


seth guido - 2005-07-10

i think is a thing u hit nails with so they go into stuff.


liatcliatc - 2006-03-23

This is a pretty acurrate tab, but when he rolls into antoher set after a few seconds in the beginning, your just a bit off, but all in all it's good, and i look forward to using this in my worship session at my church!


ieatbalogna - 2006-04-27

Does anyone know what time this is in? Someone told me 6/8 but that doesn't sound right... Unless it's on the offbeat in the chorus a lot maybe... thanks!


5isakoolnumber - 2007-04-03

just play with the song and make your own timing

by the way nice tab!


5isakoolnumber - 2007-04-03

and to the guy who tabed this,
you get better ratings if you put the tuning in there
(this ones standard)


Add a comment/correction

Complimentary Christian Ringtones
Dadamobile and CGR have teamed up to bring your favorite Christian artists right to your phone. Sign up today and get 10 complementary ringtones!
Tab Country
Did you know CGR has a sister site w/ country guitar tabs? Well we do! Its called Tab Country. It has a great archive with a lot of country tabs.
Rockin Tabs
Are you looking for a site that has rock guitar tabs? Then Rockintabs.com is the place for you. It is a budding site with many rock guitar tabs. Submit your tab today.
Tab Gallery
Tab Gallery has a compilation of christian, rock, and country tabs all in one place. Come visit us.