Guitar Tabs
song title    band name

Join Us Today!

Don't strum alone...
be a part of the largest online Christian music community. Browse thousands of guitar tabs and chat w/ musicians like yourself.


It's Free!

This tab has been rated a 4.65 out of 5 for accuracy. (88 votes)Sorry, but you must be logged in to rate this tab.
Click here to log-in, or you can click here to register.
(Registration is free)

All songs owned by corresponding publishing company. If you make copies of any song on this website, be sure to report your usage to CCLI.
Submitted by: mcrew117

Dare You to Move
Switchfoot- The Beautiful Letdown

This is a VERY ACCURATE tab. I had to watch tons of videos of Jon's finger 
placement to figure this out. Hope you enjoy!

intro: 
e) -7-7-7-0-0-0-0-0-0-0-0-0-0-0-0-0-0-0-0-0-0-0-0-0-0-0-0-0-0-0-0-0
B) -0-0-0-0-0-0-9-9-9-0-0-0-0-0-0-0-0-0-0-0-0-0-0-0-0-0-0-0-0-0-0-0
G) -9-9-9-9-9-9-9-9-9-9-9-9-9-9-9-9-9-9-9-9-9-9-9-9-9-9-9-9-9-9-9-9
D) -x-x-x-x-x-x-x-x-x-x-x-x-x-x-x-x-7-7-7-7-7-7-7-7-7-7-7-7-7-7-7-7
A) x-x-x-x-x-x-x-x-x-x-x-x-x-x-x-x-x-x-x-x-x-x-x-x-x-x-x-x-x-x-x-x
E) -x-x-x-x-x-x-x-x-x-x-x-x-x-x-x-x-x-x-x-x-x-x-x-x-x-x-x-x-x-x-x-x

VERSE 1:
like the intro

everyones here: 
e) -0-0-0-0-0-0-0-0-0-0-0-0-0-0-0-0-0-0-0-0-0-0-0-0-0-0-0-0-0-0-0-0
B) -0-0-0-0-0-0-0-0-0-0-0-0-0-0-0-0-0-0-0-0-0-0-0-0-0-0-0-0-0-0-0-0
G) -6-6-6-6-6-6-6-6-6-6-6-6-6-6-6-6-8-8-8-8-8-8-8-8-8-8-8-8-8-8-8-8
D) -7-7-7-7-7-7-7-7-7-7-7-7-7-7-7-7-9-9-9-9-9-9-9-9-9-9-9-9-9-9-9-9
A) x-x-x-x-x-x-x-x-x-x-x-x-x-x-x-x-x-x-x-x-x-x-x-x-x-x-x-x-x-x-x-x
E) -x-x-x-x-x-x-x-x-x-x-x-x-x-x-x-x-x-x-x-x-x-x-x-x-x-x-x-x-x-x-x-x

Then like the intro again.

but what happens next?:
e) -0-0-0-0-0-0-0-0-0-0-0-0-0-0-0-0-0-0-0-0-0-0-0-0-0-0-0-0-0-0-0-0
B) -0-0-0-0-0-0-0-0-0-0-0-0-0-0-0-0-0-0-0-0-0-0-0-0-0-0-0-0-0-0-0-0
G) -4-4-4-4-4-4-4-4-4-4-4-4-4-4-4-4-8-8-8-8-8-8-8-8-8-8-8-8-8-8-8-8
D) -5-5-5-5-5-5-5-5-5-5-5-5-5-5-5-5-9-9-9-9-9-9-9-9-9-9-9-9-9-9-9-9
A) -5-5-5-5-5-5-5-5-5-5-5-5-5-5-5-5-9-9-9-9-9-9-9-9-9-9-9-9-9-9-9-9
E) -3-3-3-3-3-3-3-3-3-3-3-3-3-3-3-3-7-7-7-7-7-7-7-7-7-7-7-7-7-7-7-7

CHORUS
e) -0-0-0-0-0-0-0-0
B) -0-0-0-0-0-0-0-0
G) -9-8-6-8-9-8-6-8
D) -9-9-7-9-9-9-7-9
A) -7-9-7-9-7-9-7-9
E) -0-7-5-7-0-7-5-7

VERSE 2
Guitar 1 is the same as verse 1

guitar 2: 
e) xx--x--x-x--x--xx--xx--x-x
B) xx--x--x-x--x--xx--xx--x-x
G) xx--x--x-x--x--xx--xx--x-x
D) -9-11-11-11-9-11-11-1111-11-9-9
A) -9-11-11-11-9-11-11-1111-11-9-9
E) -7--9--99--7-9-9-9--9 977

e) xx--x--x-x--x--xx--xx--x-x
B) xx--x--x-x--x--xx--xx--x-x
G) xx--x--x-x--x--xx--xx--x-x
D) -9-11-11-11-9-11-11-1111-11-9-9
A) -9-11-11-11-9-11-11-1111-11-9-9
E) -7--9-9-9--7-9-9-9-9-9-77

e) xx--x--x-x--x--xx--xx--x-x->
B) xx--x--x-x--x--xx--xx--x-x->
G) xx--x--x-x--x--xx--xx--x-x->
D) -4-4-4-4---4-4-4-4---4-4-6-6-7-7-7-7---7-7-7-7---7-7-9-9-
A) -4-4-4-4---4-4-4-4---4-4-6-6-7-7-7-7---7-7-7-7---7-7-9-9-
E) -2-2-2-2---2-2-2-2---2-2-4-4-5-5-5-5---5-5-5-5---5-5-7-7-

e) xx--x--x-x--x--xx--xx--x-x
B) xx--x--x-x--x--xx--xx--x-x
G) xx--x--x-x--x--xx--xx--x-x
D) -9-11-11-11-9-11-11-1111-11-9-9
A) -9-11-11-11-9-11-11-1111-11-9-9
E) -7--9--9-9-79-9-9--9-9-77

e) xx--x--x-x--x--xx--xx--x-x->
B) xx--x--x-x--x--xx--xx--x-x->
G) xx--x--x-x--x--xx--xx--x-x->
D) -4-4-4-4---4-4-4-4---4-4-6-6-7-7-7-7---7-7-7-7---7-7-9-9-
A) -4-4-4-4---4-4-4-4---4-4-6-6-7-7-7-7---7-7-7-7---7-7-9-9-
E) -2-2-2-2---2-2-2-2---2-2-4-4-5-5-5-5---5-5-5-5---5-5-7-7-

REPEAT CHORUS

BRIDGE: 
e) -0-0-0-0-0-0-0-0-0-0-0-0-0-0-0-0-0-0-0-0-0-0-0-0-0-0-0-0-0-0-0-0
B) -0-0-0-0-0-0-0-0-0-0-0-0-0-0-0-0-0-0-0-0-0-0-0-0-0-0-0-0-0-0-0-0
G) -9-9-9-9-9-9-9-9-9-9-9-9-9-9-9-9-6-6-6-6-6-6-6-6-6-6-6-6-6-6-6-6
D) -9-9-9-9-9-9-9-9-9-9-9-9-9-9-9-9-7-7-7-7-7-7-7-7-7-7-7-7-7-7-7-7
A) -7-7-7-7-7-7-7-7-7-7-7-7-7-7-7-7-7-7-7-7-7-7-7-7-7-7-7-7-7-7-7-7
E) -0-0-0-0-0-0-0-0-0-0-0-0-0-0-0-0-5-5-5-5-5-5-5-5-5-5-5-5-5-5-5-5
X2

e) -0-0-0-0-0-0-0-0-0-0-0-0-0-0-0-0-0-0-0-0-0-0-0-0-0-0-0-0-0-0-0-0
B) -0-0-0-0-0-0-0-0-0-0-0-0-0-0-0-0-0-0-0-0-0-0-0-0-0-0-0-0-0-0-0-0
G) -6-6-6-6-6-6-6-6-6-6-6-6-6-6-6-6-6-6-6-6-6-6-6-6-6-6-6-6-6-6-6-6
D) -6-6-6-6-6-6-6-6-6-6-6-6-6-6-6-6-7-7-7-7-7-7-7-7-7-7-7-7-7-7-7-7
A) -4-4-4-4-4-4-4-4-4-4-4-4-4-4-4-4-7-7-7-7-7-7-7-7-7-7-7-7-7-7-7-7
E) -0-0-0-0-0-0-0-0-0-0-0-0-0-0-0-0-5-5-5-5-5-5-5-5-5-5-5-5-5-5-5-5

e) -0-0
B) -0-0
G) -6-8
D) -7-9
A) x-x
E) -x-x

GUITAR SOLO: (listen to song)
e) x-x-x-x-x-x-11
B) x-9-x-10-12-12
G) -9-x-9--9-9--x

CHORUS E B A B E B A C# A B E 

Good luck and God Bless. 

Comments about this tab

Superman90 - 2004-09-11

Me and my friend used this tab to play in church and it sounded awesome, if anybody has any other good tabs e-mail them to me BryantMagnus_07@hotmail.com


ethinkis - 2004-09-12

THANK YOU! I LIKE IT ALOT!


sixstringes777 - 2004-09-28

i think the solo is wrong but the rest is awsome

SOLO:
e-0-0-0-0-0-0-0-0-0-0-0-0-0-0-5-5-5-5-5-5-5-5-5-5-5-5-5-5-
B---------------------------------------------------------
G---------------------------------------------------------

e-7-7-7-7-7-7-7-7-7-7-7-7-7-7--11B------------------------
B---------------------------------------------------------
G---------------------------------------------------------


pistolpete - 2004-10-05

I luv it.


Chrishawk4 - 2004-10-16

だいすき I love this song and this tab is immaculent. It is so perfect.


BBswimmmer14 - 2004-11-01

Thanks this tab is awesome


jsoccer - 2004-11-03

perfect except
the solo goes like this
g-----------------77777777777-----------|- | ^
b555-7-9--555555559999999999955555555555|10|111111
e000000000000000000000000000077777777777|11|121212
read as elevan and twelve


GuitarBeemer - 2004-11-10

great tab, man


marieb - 2004-11-10

AWESOMENESS!!! i LOVE swtichfoot and dude u are so totally blessed to watch jons fingers to tab this song!!! *kisses*
marieb


mcrew117 - 2004-11-26

hahaha thanks for the comments guys...and yea i know the solo part is wrong but it was just a wild guess =P


Jesusisluv_34 - 2004-12-04

Guys,I am new to the whole guitar playing thing.What does the x's mean?Does it mean to like not play it or like something else?As you can see,I obviously need help.


jsoccer - 2004-12-07

x maens to lightly put your finger over that note in other words to mute the string


jsoccer - 2004-12-09

the solo is pretty correct i tried it on an ELECTRIC instead of my ACCOSTIC and its pretty good and the solo i put up is WRONG. I tried it with the cd and it did not match. So im confused :( how do you do the solo?


Broadcaster - 2004-12-19

Hey, I didn't play the whole song through, but I thought the acoustic part seemed pretty good. I don't have an electric guitar so I didn't try the electric part of the song. I actually have the Beautiful Letdown songbook, but the chords for "Dare" don't seem to work very well. Atleast not the chord shapes they give, the chord names might be right. I had been using a different tab for this song, but I might like this one better (it's easier to play too). So thanks for the hard work. This is my favorite song ever!! -Broadcaster's sister


Timberwolf - 2005-01-04

Great tab but I think verse2 sounds better like this
-----------------------------------------------------------------------
-----------------------------------------------------------------------
-----------------------------------------------------------------------
9/11-11-11x9/11-11-11x11-11-9-9-----4-4---4x-44-4-44-66-7777x7777x7777-
x/-x--x--xxx/-x--x--xx-x--x-x-x-(x2)x-x-2-xx-xx2x-xx-xx-xxxxxxxxxxxxxx-
7/-9--9--9-7/-9--9--9--9--9-7-7-----2-2-0-2--2202-22-44-55555555555555-etc.


rockin_4_Christ - 2005-01-14

awsome! ok i just started playing well really playing guitar in the past month or 2 and it sounds perfect! awsome tab keep up the good work!
Keep rockin 4 Him!


sportsboi - 2005-01-25

AMAZING TAB!!! i wuz playing intro
e-00000000000000000000000000000000
b-12-12-12000999000000000000000000
g-xxxxxxxx999999999999222222222222
d-xxxxxxxxxxxxxxxxxxxx222222222222
a-xxxxxxxxxxxxxxxxxxxxxxxxxxxxxxxx
e-xxxxxxxxxxxxxxxxxxxxxxxxxxxxxxxx

but this is WAY easier and sounds WAY better...lol koodles to tabwriter


Beyer413 - 2005-01-29

For people wondering aout the Solo

e -0-0-0-0-0-0-0-0-0-0-0-0-0-0-0-0--0--0--0--0--0--0--0--0--0--0-
b?-7-7-7-9-5-5-5-5-5-5-5-5-5-5-5-10-10-10-10-10-10-10-10-10-10-10-


-0--0--0--0--0--0--0--0--0--0--0--0-
-12-12-12-12-12-12-12-12-12-12-12-14(Heavy bend!)

That's played on the igh e string and the string below it. Extra dashes between the open e are just for lining up purposes. If you're using an acoustic, I bend the 15th fret instead of 14th, because acoustic is harder to bend.


skid - 2005-02-03

Great tab man i give it a five not including the solo. This is the simplest tab but most accurate tab of this song i've ever seen good job


demonhunter_fan - 2005-02-04

hey. good job on this tab. I played it yesterday and it's so accurate. i give you a five cause it' s a good tab. hte solo is not that important that it would lower your rating by me. i have a version of ment to live on the internet at www.ultimate-guitar.com. search it as ment to live and it should show up and when you open it ot should be tabed out by moogle. but there are a couple corrections i need to make. k later

moogel ( demonhunter_fan)


guitarhockeyman - 2005-02-23

OK on guitar 2 Verse 2 the lin:
e) xx--x--x-x--x--xx--xx--x-x
B) xx--x--x-x--x--xx--xx--x-x
G) xx--x--x-x--x--xx--xx--x-x
D) -9-11-11-11-9-11-11-1111-11-9-9
A) -9-11-11-11-9-11-11-1111-11-9-9
E) -7--9--9-9-79-9-9--9-9-77
should look like:
e) xx--x--x-x--x--xx--xx--x-x
B) xx--x--x-x--x--xx--xx--x-x
G) xx--x--x-x--x--xx--xx--x-x
D) -9-11-11---9-11-11-9-9
A) -9-11-11---9-11-11-9-9
E) -7--9--9---79-9-77
Your intro is AWESOME


misschicky2291 - 2005-02-28

wow....just...wow...I mean.....wow....this is soooo incredibly awesome!!!! Thank you soooooo incredibly much!!!! It's really really great...the most accurate version I've seen yet! Thanks a again, a billion and a half!


Abnormwarm - 2005-03-01

beyer413, dude (I think you're a dude)
I played the solo and it all sounds right to me. and "yes" the string after the high e is "B"
Switchfoot Rocks! also, where'd you get you SF buddy icon?


Russell_L-30 - 2005-03-08

Hey awesome tab bro, but I was wondering on this part if i's supposed to be
-0
-0
-3
-4
-4
-2
instead of :


but what happens next?:
e) -0-0-0-0-0-0-0-0-0-0-0-0-0-0-0-0-0-0-0-0-0-0-0-0-0-0-0-0-0-0-0-0
B) -0-0-0-0-0-0-0-0-0-0-0-0-0-0-0-0-0-0-0-0-0-0-0-0-0-0-0-0-0-0-0-0
G) -4-4-4-4-4-4-4-4-4-4-4-4-4-4-4-4-8-8-8-8-8-8-8-8-8-8-8-8-8-8-8-8
D) -5-5-5-5-5-5-5-5-5-5-5-5-5-5-5-5-9-9-9-9-9-9-9-9-9-9-9-9-9-9-9-9
A) -5-5-5-5-5-5-5-5-5-5-5-5-5-5-5-5-9-9-9-9-9-9-9-9-9-9-9-9-9-9-9-9
E) -3-3-3-3-3-3-3-3-3-3-3-3-3-3-3-3-7-7-7-7-7-7-7-7-7-7-7-7-7-7-7-7


dwdrumma - 2005-03-20

ok for the intro, i have been to so many sites its not even funny, and this is the most accurate intro i have found *cough cough- it doesent matter how many videos u have seen, they are not entirely accurate to the CD*

-0--0--0---0-0-0--0-0-0--0-0-0-0-0-0-0--0-0-0-0-0-0-0-0-0-0-0-0-0-0-0-0-
-12-12-12--0-0-0--9-9-9--0-0-0-0-0-0-0--0-0-0-0-0-0-0-0-0-0-0-0-0-0-0-0-
-9--9--9---9-9-9--9-9-9--9-9-9-9-9-9-9--9-9-9-9-9-9-9-9-9-9-9-9-9-9-9-9-
-11-11-11--9-9-9--9-9-9--9-9-9-9-9-9-9--7-7-7-7-7-7-7-7-7-7-7-7-7-7-7-7-
-x--x--x---x-x-x--x-x-x--x-x-x-x-x-x-x--x-x-x-x-x-x-x-x-x-x-x-x-x-x-x-x-
-x--x--x---x-x-x--x-x-x--x-x-x-x-x-x-x--x-x-x-x-x-x-x-x-x-x-x-x-x-x-x-x-


mcrew117 - 2005-03-22

hmm yea..i think the intro is pretty accurate cuz that's how he plays it live on mtv.com...and im sure there's other ways to play it but yea..that's how he plays it...thanks for the comments..God bless.


Timberwolf - 2005-03-24

Solo
000-0-0-00-0000-00-0000-000000000000000000-0000000000000000-000000000000000
777/9-5-55-5555-55-5555-101010101010101010-1212121212121212-14b161616161616
--------------------
--------------------
--------------------
--------------------


Ryan Freeland - 2005-03-24

Actually, I think this is the correct intro. It sounds better and is easier for me anyway.

E|--0--0--0--0--0--0--0--0--0--0--0--0--0--0--0--0--0--0--0--0
B|-12-12-12--0--0--0--9--9--9--0--0--0--0--0--0--0--0--0--0--0
G|--9--9--9--9--9--9--9--9--9--9--9--9--9--9--9--9--9--9--9--9
D|-11-11-11-11-11-11--9--9--9--9--9--9--7--7--7--7--7--7--7--7
A|--X--X--X--X--X--X--X--X--X--X--X--X--X--X--X--X--X--X--X--X
E|--X--X--X--X--X--X--X--X--X--X--X--X--X--X--X--X--X--X--X--X


tryingNEway - 2005-03-30

Hey yall. I really have nothing to add. Everybody and their dog has posted something on this page, and I felt left out :(. On the subject of dogs, mine caught a snake today! I didn't get to see it, because I go to school @ DBU, but my mom told me about it. Yep. Taylor guitars sound really nice, and sleep does too right now. Besides, research papers can wait. They usually write best the night before they're due anyways. Anyways, this "much a-do about nothin' " post is getting long and I still have to brush my teeth before I hit the hay. Switchfoot is cool. Don't burn their music because they are a good band and if you get caught you hafta pay $300,000 dollars to the guy who invented Napster.


SG_man_22 - 2005-03-30

im pretty sure the solo goes like this

-0-0-0-0-0-0-0-0-0-0-0-0-0-5-5-5-5-5-5-5-5-5-5-5-5-5-0-0-0-0-0-0-0-0-0-0-0-0-0-b11

all of that is done on the high E string. nice tab by the way


Timberwolf - 2005-04-06

Hey everyone I just got The Beautiful Letdown Guitar Recorded Version.


coolcowboy - 2005-04-07

Hey guys.... great tab by the way... i love playing that song so much more than how I used to play it.... also you guys have to remember.... the solo is with two guitars being played at the same time..... i think i have an idea of how it goes but I really don't feel like trying to type it up.... but i use the Dsus finger position and well you can go from there... i mix it up a little more though but like I said i dont feel like typing it all up.... so yeah great tab again....


Timberwolf - 2005-04-07

000-0-00000000-0-0-0-0-0-0-0-0-0-0-0-0-0-0-0
777/9-55555555101010101010101212121212121212



-0--0-0-0-0-0-0-00000
12b14141414141414----


Timberwolf - 2005-04-08

oops!
-0--0-0-0-0-0-0
14b161616161616


jel_zynth - 2005-04-09

this is a great tab! it's simpler than the one i know but they sound alike..keep on rockin'


rockin_4_Christ - 2005-04-11

dude i just started playing guitar like three months ago and man this tab is so awsome in like an hour i had the whole thing down. keep up the awsome work u rock and keep usin your God givin talent for Him.
God Bless,
><>Josh<><


caman9119 - 2005-04-18

in this song i found a few problems in the 2 verse it is much esaeir to play

D--444\777--444\777
A--222\555--222\555
E------------------ instead of what you had it was easier to transition to the second part of the verse wich is
D--------------
E--444--444--
A--222--222-- This tab does need a little polishing but over all its good

Oh and could you tab out the solo betterour youth group has trouble timing it could you count the strums plz and tab it out


rockin_4_Christ - 2005-04-21

i saw this somewhere, lol i thought on here but i can't find it all of a sudden but i do
e) 0-0-0-0-0-0-0-0-0-0-0-0-0-0-0-0-0-0-0-0-0-0-0-0-0-0-0-0-0-0-0-0-0-0-0-0-0-
B) 7-7-7-9-9-9-5-5-5-5-5-5-5-5-5-5-5-5-5-5-5-5/10-10-10-10-10-10-10-10-10-10-

0-0-0-0-0-0-0-0-0-0-0-0-0-0-0-0-0-0-0-0-0-0-0-0-0-0-0-0-0-0-0-0-0-0
10-10-10-10-10-10/12-12-12-12-12-12-12-12-12-12-12-12-12-12-12-12-14 heavy bend

as i said, i saw this somewhere else so i take no credit (for the zeros, there are 54 of them, they do not lign up right on here but u hit the first string open with each note if that makes sence, i do not know if there are the right amount on there cuz they just wouldn't lign up correctly, so if there are a million and a half more zeros than notes just know they are supposed to be equal. i hope that makes sence. it doesn't sound perfect but its pretty close i think, don't get on me if it sucks cuz, it works for me :)


rockin_4_Christ - 2005-04-21

i knew i saw it on here! lol Beyer413 posted a version like this but i hit the notes more times than he does. sorry beyer413 you get the credit for me doin it like this.:)


rockin_4_Christ - 2005-04-23

sorry its me again, just wanted to let you know his solo sounds better i hadn't played mine w/ the cd in a while i was just playin it while i was playin the song and when i played it w/ the cd i hit the notes a little too many times, so forget it sorry i posted so much stuff i thought i had it but i don't, l8rz


iluvm@thiessen - 2005-05-12

you're neat


DrummerGurl - 2005-05-12

whoever put thatalast comment on here is odd. Nice tab.


iluvm@thiessen - 2005-05-12

grace u r an idiot ^....so what I am odd, leave me alone! ur just jealous kuz i have a better sn!


AcousticServant - 2005-05-14

awesome tab! here is one way that i saw the intro played:

e:7 7 7 0 0 0 4 4 4 0 (the A2 chord gets played lots more times...)
b:0 0 0 0 0 0 0 0 0 0
g:0 0 0 0 0 0 0 0 0 2
d:x x x x x x x x x 2
a:x x x x x x x x x x
e:x x x x x x x x x x

but i like ur intro better :D sounds more...full...good job dude~


PeaceSetDrummer - 2005-05-17

i am sick of yourguy's wrong solo...I know it is hard to figure it out because switchfoot doesnt show youguys the solo part or skips the solo on their performances but this is how it goes...beware you guys will be embarassed....
so it will hurt.promise..i know because if u live in San Diego where they are from....you know everything about SF....so peace yall....Drummers Rule!!

e|0-0-0-0-0-0-0-0-0-0-0-0-0-0-0--0-0-0-0-0-0-0-0-0-0-0-0-0-0-0-|
b|0-0-0-0-0-0-0-0-0-0-0-0-0-0-0--101010101010101010101010101010|
g|9-9-9-9-9-9-9-9-9-9-9-9-9-9-9--9-9-9-9-9-9-9-9-9-9-9-9-9-9-9-|
d|-------------------------------------------------------------|
a|-------------------------------------------------------------|
e|-------------------------------------------------------------|

e|0-0-0-0-0-0-0-0-0-0-0-0-0-0-0--11s13-13131313131313131313131313|
b|0-0-0-0-0-0-0-0-0-0-0-0-0-0-0--12s14-14141414141414141414141414|
g|9-9-9-9-9-9-9-9-9-9-9-9-9-9-9---9s11-11111111111111111111111111|
d|---------------------------------------------------------------|
a|---------------------------------------------------------------|
e|---------------------------------------------------------------|


PeaceSetDrummer - 2005-05-17

and that intro....it's alright....but the people with the corrections are right it starts off like

e|-0---0---0---0---0|
b|12---0---9---0---0|
g|-9---9---9---9---9|
d|11---9---9---9---7|
a|-x---x---x---x---x|
e|-x---x---x---x---x|

i know this correct...u sure u dont need glasses because this is the correct way.....lets just say that i have been to alteast 5 of their concerts and know every single thing from their songs down to how long their hair on thier heads are to what instruments they use....so any questions about SF.just ask me..any single things...if u want to know how they play this song on some of their concerts i'll be glad to put out more tab corrections or answer questions..but i will not tab out any songs....i just dont have the time so buzz in with any ?'s...thank u.GB u all


matt j t - 2005-05-21

hey mcrew117,

Awesome job on the tab!!!

i played your version (i used someone else's solo...no offence) with the CD in a talent show....it was great!!!


vote4pedro - 2005-05-22

this tab is not right at all. if the person who tabbed this really has seen alot of videos of switchfoot then he would know that the intro/bridge/solo gos like this
figure out strumming
e---0------------
b---12--9--9--0--
g---9---9--9--9--
d---11--11-9--7--

everyone's here... what happen's next...
e--------------------------
b---0--0-------------0-----
g---6--9-------------7--8--
d---4--7-------------5--9--
a-----------------------9--

the bridge
guitar 1
where u gonna go...
g---9-------9-------9------------11---4---
d---9---7---9---7---9---11---7---11---4---
a---7---7---7---7---7---11---7---9----2---
e-------5-------5-------9----5------------

guitar 2 during the bridge does this (which u can see them do in their dvd LIVE in San Diego)
g---2/9---9\2---2/9---9\2---

solo
i saw this on a live performance on t.v. i think it was the late shoe with Craig Killborn
e---0---0----0----0----
b---5---10---12---15---
g-------9----11---14---

anyways there u go


Timberwolf - 2005-05-24

Intro Only 1 gt.
-0-0-0--00---
12-1212-00---
-x-----------
11-----------etc. trust me I have the book.
-------------
-------------


rockin_4_Christ - 2005-05-27

i think PeaceSetDrummer is right on the intro, i have seen it played that way in a few places including power tab and it sounds almost perfect


Dory - 2005-06-04

what do the x means email me at Dorydoryrocks@aol.com


PeaceSetDrummer - 2005-06-24

x means to avoid it or finger mute it if it is in between strings in use, that's all, but check out my version of the Dare You to Move, my friend Aaron and i did it so viola


bretm - 2005-06-25

this tab is really really good, it sounds exactly like the cd, and this is how they play it in a dvd that i borrowed from my friend. i was looking at the previous comments a little bit at the solos, but i didnt look 2 carefully, so if someone already put this one on here srry, but this is how i do the solo

e--0-----0-----0-----0-----
b--7-----10----12----14b---
13x 16x 16x extrememly massive bend

this is a really easy way to play the solo and it sounds good. this is how i play it. Once again good job on the tab!
bret


Talkz2Wallz2 - 2005-07-06

DUDE....FREAKIN AWSOME TAB!!!!! it rulz....i love.....rock on man!!!!!!


chris1001 - 2005-07-06

good job man!!!!!! i gave it a 5 not (not including the solo).... great work


Skaw_T - 2005-07-13

beautifull


j_rocker05 - 2005-07-21

my version of the solo sounds right and its easy

E-------------------------------------------------------
A---------------------------------------------------------
D--------------------------------------------------------
G10101010--1010101010\222222222222222/999999999999999/17b
B-------------------------------------------------------
e--------------------------------------------------------


j_rocker05 - 2005-07-21

my bad on the solo tab above its 9 in the beginning not ten


united777 - 2005-07-24

ok: i was asked to play dare you to move in these chords

Intro:
E E5 E2 E5

and so on
can you tell me what version of these chords sound the best A.S.A.P.
I NEED YOUR HELP QUICK!!!


bro_in_christ - 2005-08-18

great tab man! besides the solo that is. but i got that down from somewhere else. anyways, thanks for the tabs.


rockit 4 jesus - 2005-09-17

hey wassup great tab most acurate i`ve used ty

just remeber ROCKIT 4 HIM!!!


Christian_Rock7 - 2005-10-03

Great Job Just one thing
At the end of verse one where it is
e) 0-0-0-0-0-0-0-0-0-0-0-0-0-0-0-0
B) 0-0-0-0-0-0-0-0-0-0-0-0-0-0-0-0
G) 9-9-9-9-9-9-9-9-9-9-9-9-9-9-9-9
D) 7-7-7-7-7-7-7-7-7-7-7-7-7-7-7-7
A) x-x-x-x-x-x-x-x-x-x-x-x-x-x-x-x
E) x-x-x-x-x-x-x-x-x-x-x-x-x-x-x-x

I think it sounds better like this:

e) 0-0-0-0-0-0-0-0-0-0-0-0-0-0-0-0
B) 0-0-0-0-0-0-0-0-0-0-0-0-0-0-0-0
G) 9-9-9-9-9-9-9-9-9-9-9-9-9-9-9-9
D) 7-7-7-7-7-7-7-7-7-7-7-7-7-7-7-7
A) 0-0-0-0-0-0-0-0-0-0-0-0-0-0-0-0
E) x-x-x-x-x-x-x-x-x-x-x-x-x-x-x-x

But that could just be me
Well good job on the tab
Keep it up


pjohn - 2005-10-04

Great Tab. Does anyone know how to play the elec part over v2?


jesusfrk5:16 - 2005-10-09

Okay, im kinda new to tab reading/playing. do you read from the top string(e)down the tab?
(e)--


mcrew117 - 2005-10-13

the small e is the high e and the E is the low one.

yes, the intro is the other way...i didn't even catch that haha..my friend taught me the intro and i assumed it was right...sorry but it does sound similar and i think it's easier to play.

i'm trying to tab "stars" right now since i dont see one on this board so look for that soon...

and by the way...i'm a girl =)


jakeut2001 - 2005-10-16

great tab! this song is so much fun to play.


aero! - 2005-10-20

Peacesetdrummer: um your version of the solo isnt all that accurate but the intro you posted is totally right. thats the way ive been playing it but im just too lazy to tab it.
Timberwolf: your solo was all the way right


rockin4him_440 - 2005-11-10

this tab sounds great, but the intro is a little off. don't get me wrong, this intro sounds good, but the one i use sounds a bit more accurate. here it is:

E[-0--0--0--0--0-0-0-0-0-0-0-0--------0-0-0-0-0-0-0-0--0-0-0-0-0-0-0-0-]
B[-12-12-0--0--9-9-0-0-0-0-0-0--------0-0-0-0-0-0-0-0--0-0-0-0-0-0-0-0-]
G[-9--9--9--9--9-9-9-9-9-9-9-9---2x---9-9-9-9-9-9-9-9--9-9-9-9-9-9-9-9-]
D[-11-11-11-11-9-9-9-9-7-7-7-7--------8-8-8-8-8-8-8-8--7-7-7-7-7-7-7-7-]
A[-x--x--x--x--x-x-x-x-x-x-x-x--------9-9-9-9-9-9-9-9--x-x-x-x-x-x-x-x-]
E[-x--x--x--x--x-x-x-x-x-x-x-x--------x-x-x-x-x-x-x-x--x-x-x-x-x-x-x-x-]

that's it! i don't know if that's exactly how master Fontamillas plays it, but i think it's pretty darn close! have fun!!!


bassfreek208 - 2005-11-19

'master fontamillas' doesn't play guitar on this song, its jon and drew on guitars, tim on bass, chad on drums, and 'master fontamillas' on keyboards

lol...'master fontamillas?'


whoami??really! - 2005-11-25

wow that was a great tab. it's........... wow. the solo itn't the best but other than that it's great


monkeygirlrosie - 2005-11-29

Okey none of you got the intro right. I know someone who plays it with their band and the others are totally wrong....we listened to them up against the cd and i don't think they could get closer here is what they play.

e|7--0--0--0--0--0--0--0---------------
B|0--0--0--0--0--9--0--0--------------......and so on
G|9--9--9--9--9--9--9--9--------------
D|9--9--9--9--9--9--9--9------------
A|******************************************
E|******************************************


JesusFreakJP34 - 2005-12-29

Awesome tab. Thanks for putting it on.


coolcowboy - 2006-02-05

OK I've played this version of this song for a very long time now and I seriously think the solo from the way it sounds on the cd goes like this:
e|-0--------0--------0--------0---------------|
B|-5-(10x)-/9-(10x)-/12-(15x)-14b-(10x)-------|
G|-4-------/8-------/11-----------------------|
D|--------------------------------------------|
A|--------------------------------------------|
E|--------------------------------------------|
Note: bend that string up high. If you pick as fast as they are on the cd it sounds really good! I garuntee it. After listening to this song for the last two years and have watched the videos of them playing and watching them play it in a studio it's very clear to me how it sounds. If you don't think so or have comments about it email me at Horseriderbud@aol.com.

/= slide
b= bend


Basshammer2000 - 2006-04-07

Is it I DARE YOU TO MOVE or is it DARE YOU TO MOVE?


ProneDistortion - 2006-05-21

Ya, Great Tab Man...Its a great Song... :)


Guitar4GOD rio - 2006-10-01

Nice job...it's not perfect,but it's good.


Switchfoot_ - 2007-01-10

Hi,mcrew117,Awsome tab!But The Only Correction i would put is that you should Tune your guitar Half a step down.try it.it sounds exacly like the real thing.


rockgirl11 - 2007-01-15

hey
great tab i am new to playin guitar and this tab really helps me thanks
keep rockin 4 God!!!
katie


GUITAR MASTA - 2007-02-08

wow thats alot of numbers dude thats cool


dhornet70 - 2008-01-06

good job man, this is really good. oh, and to everyone freaking out about it not being perfect.....it isnt.....but its VERY close and fun to play. who cares? thanks man for the good tab. God bless.


Add a comment/correction

Complimentary Christian Ringtones
Dadamobile and CGR have teamed up to bring your favorite Christian artists right to your phone. Sign up today and get 10 complementary ringtones!
Tab Country
Did you know CGR has a sister site w/ country guitar tabs? Well we do! Its called Tab Country. It has a great archive with a lot of country tabs.
Rockin Tabs
Are you looking for a site that has rock guitar tabs? Then Rockintabs.com is the place for you. It is a budding site with many rock guitar tabs. Submit your tab today.
Tab Gallery
Tab Gallery has a compilation of christian, rock, and country tabs all in one place. Come visit us.