Guitar Tabs
song title    band name

Join Us Today!

Don't strum alone...
be a part of the largest online Christian music community. Browse thousands of guitar tabs and chat w/ musicians like yourself.


It's Free!

This tab has been rated a 4.40 out of 5 for accuracy. (10 votes)Sorry, but you must be logged in to rate this tab.
Click here to log-in, or you can click here to register.
(Registration is free)

All songs owned by corresponding publishing company. If you make copies of any song on this website, be sure to report your usage to CCLI.
Submitted by: downfall321

this is my first tab guys. i think its exactly the same. i played it with the 
cd and it sounded good so here it goes.

CGCFAD (i think all their songs are)

.=palm mute
/slide up, \slide down,
h hammer on, p pull off

intro:
D-------------------------------------------
A-------------------------------------------
F-------------------------------------------
C-7-1-2-3-7-1-2-3-7-1-2-3-7-1-2-3-----------
G-7-1-2-3-7-1-2-3-7-1-2-3-7-1-2-3-----------
C-7-1-2-3-7-1-2-3-7-1-2-3-7-1-2-3-----------

verse
c-7-77-77-77-7-7-6-66-66-66-6-6-6-66-66-66-6-6-3-33-33-33-3-3----
G-7-77-77-77-7-7-6-66-66-66-6-6-6-66-66-66-6-6-3-33-33-33-3-3----
C-7-77-77-77-7-7-6-66-66-66-6-6-6-66-66-66-6-6-3-33-33-33-3-3----

pre-chorus
c-7-7-7-7---3-3-3-3---5-5-5-5---0-0-0-0----
G-7-7-7-7---3-3-3-3---5-5-5-5---0-0-0-0----
C-7-7-7-7---3-3-3-3---5-5-5-5---0-0-0-0----

chorus 1 (the palm mutes on these 2parts are sorta tricky to keep in tempo)
c-00000------00000------00000----7-1-2-3----
G-00000------00000------00000----7-1-2-3----
C-00000------00000------00000----7-1-2-3----
  .....      .....      .....            

chorus 2 (same as above)
c-00000-0-0-0-0-0-00000-0-0-0-0-0-00000-0-0-0-0-0-7-1-2-3----
G-00000-0-0-0-0-0-00000-0-0-0-0-0-00000-0-0-0-0-0-7-1-2-3----
C-00000-0-0-0-0-0-00000-0-0-0-0-0-00000-0-0-0-0-0-7-1-2-3----
  ..... . . . . . ..... . . . . . ..... . . . . .

bridge pt1
c-0--/7--6---1-2--
G-0--/7--6---1-2--
C-0--/7--6---1-2--
             . . 

bridge pt2
c-0-0-00--0-7-7-77--7-6-6-66--6--1-2-
G-0-0-00--0-7-7-77--7-6-6-66--6--1-2-
C-0-0-00--0-7-7-77--7-6-6-66--6--1-2-

bridge pt3
c-0-0-0--07-7-7--76-6-6--1-2-
G-0-0-0--07-7-7--76-6-6--1-2-
C-0-0-0--07-7-7--76-6-6--1-2-

order:
intro, 1x
verse, 2x
prechorus, 1x
chorus 1, 2x
chorus 2, 2x
verse, 2x
prechorus, 1x
chorus 1, 2x
chorus 2, 2x
bridge pt1, 2x
bridge pt2, 2x
bridge pt3, 2x
chorus 1, 2x
chorus 2, 2x

Comments about this tab

downfall321 - 2004-07-13

sorry guys, on the verse, it should be:

-77-77-77-77-7-7-66-66-66-66-6-6-66-66-66-66-6-6-33-33-33-33-3-3
-77-77-77-77-7-7-66-66-66-66-6-6-66-66-66-66-6-6-33-33-33-33-3-3
-77-77-77-77-7-7-66-66-66-66-6-6-66-66-66-66-6-6-33-33-33-33-3-3
sorry bout that.


Fire Raven - 2004-11-03

I think the verse sounds a bit more like...
7-77-77-77-7-77-6-66-66-66-6-66-3-33-33-33-3-33-2-22-22-22-2-22
7-77-77-77-7-77-6-66-66-66-6-66-3-33-33-33-3-33-2-22-22-22-2-22
7-77-77-77-7-77-6-66-66-66-6-66-3-33-33-33-3-33-2-22-22-22-2-22


JesuseFreak18 - 2004-12-12

yeah...i have to agree with fire raven...its close either way though


glcpillar - 2004-12-28

hey guys. well the beginning and a lot of the chorus is right. the only problem i have is the verse chords..... i'll correct it for ya after i hear it a million times :-D. God bless Jah men!


ironman316 - 2005-03-29

i think you guys have it wrong still. i just listened to it and played it over and over and it sounds like this:


d
a
f
c----------------------------------------------------------------
g--4-----4-----4-----4-----4---4---3-----3-----3-----3-----3---3---3
c--7-7-7-7-7-7-7-7-7-7-7-7-7-7-7-7-7-7-7-7-7-7-7-7-7-7-7-7-7-7-7-7-6--like the previous 4 3
7 7

and then c-3-----3-----3-----3-----3-----3
g-3-----3-----3-----3-----3-----3
c-3-3-3-3-3-3-3-3-3-3-3-3-3-3-3-3
* * * * * * * * * *

that's how it sounds to me.


_Mat_ - 2005-04-16

by the way DH plays 7 string guitars, don't they


chickensallad64 - 2005-05-09

dh doesnt play 7 string guitars. go check for your self at the washburn guitar web site.


luvadict - 2006-12-16

hey chickensalad64, ive seen them in concert and they actually used both 7 and 6 sting guitars. on this particular song, they use a six string. I agree with fire raven. god bless!


bergton - 2007-01-11

looks good lol


bergton - 2007-01-11

fire revrand is right er


Add a comment/correction

Complimentary Christian Ringtones
Dadamobile and CGR have teamed up to bring your favorite Christian artists right to your phone. Sign up today and get 10 complementary ringtones!
Tab Country
Did you know CGR has a sister site w/ country guitar tabs? Well we do! Its called Tab Country. It has a great archive with a lot of country tabs.
Rockin Tabs
Are you looking for a site that has rock guitar tabs? Then Rockintabs.com is the place for you. It is a budding site with many rock guitar tabs. Submit your tab today.
Tab Gallery
Tab Gallery has a compilation of christian, rock, and country tabs all in one place. Come visit us.