Guitar Tabs
song title    band name

Join Us Today!

Don't strum alone...
be a part of the largest online Christian music community. Browse thousands of guitar tabs and chat w/ musicians like yourself.


It's Free!

This tab has been rated a 1.67 out of 5 for accuracy. (3 votes)Sorry, but you must be logged in to rate this tab.
Click here to log-in, or you can click here to register.
(Registration is free)

All songs owned by corresponding publishing company. If you make copies of any song on this website, be sure to report your usage to CCLI.
Submitted by: watsdan

Kutless-Treason

Dropped D- Low to High- dadgbe

~= let ring
h= Hammer on
*= Palm Mute

This song is in a different tuning and I think its a 
little bit more accurate then the others in dropped d tuning.  
This song is awesome! 

I'll represent the Lower D string with an E so its a little bit easier to
read.

Intro:
d--1-3-------1-3-------1-3-------1-3--1--1h3-1
a--1-3--11---1-3--11---1-3--11---1-3--1--1h3-1
E--1-3-------1-3-------1-3-------1-3--1--1h3-1 X2

Verse:
d--8~---8~---1-3-------1-3--------1-3--------1-3----1--1h3-1
a--8~---6~---1-3--11---1-3--11----1-3--11----1-3----1--1h3-1
E--8~---6~---1-3-------1-3--------1-3--------1-3----1--1h3-1

d--3~----1~
a--3~----1~
E--3~----1~
Then after the second time through play this at the end

Chorus:
d--333333333333366666666666661111---------88---------11-11
a--333333333333366666666666661111---11-11-88---11-11-11-11
E--333333333333366666666666661111---------88---------11-11  X2
                              **
Bridge:
d--1-3---------1-3---------1-3---------1-3--1-1
a--1-3--11-10--1-3--11-10--1-3--11-10--1-3--1-1
E--1-3---------1-3---------1-3---------1-3--1-1
                                            * *
d-3--3h4-3------3-3h4-3------3-3h4-3------6-6-1-1
a-3--3h4-3--11--3-3h4-3--11--3-3h4-3--11--6-6-1-1
E-3--3h4-3------3-3h4-3------3-3h4-3------6-6-1-1
Play this part twice


Song Progression:

Intro
Verse
Chorus
Intro
Verse
Chorus
Bridge
Chorus
Intro

BEC Records
Written by Kutless
2004 Thirsty Moon River Publishing/Indecisive Music Publishing
Solid People Songs(BMI)

well thats it   Enjoy!

Comments about this tab

5isakoolnumber - 2007-03-26

very quik question
problibly stupid but r there any 11's or 1?
cause im stupid and cant tell if they say 11 or 1 so
can u plz just say so!


Add a comment/correction

Complimentary Christian Ringtones
Dadamobile and CGR have teamed up to bring your favorite Christian artists right to your phone. Sign up today and get 10 complementary ringtones!
Tab Country
Did you know CGR has a sister site w/ country guitar tabs? Well we do! Its called Tab Country. It has a great archive with a lot of country tabs.
Rockin Tabs
Are you looking for a site that has rock guitar tabs? Then Rockintabs.com is the place for you. It is a budding site with many rock guitar tabs. Submit your tab today.
Tab Gallery
Tab Gallery has a compilation of christian, rock, and country tabs all in one place. Come visit us.