Guitar Tabs
song title    band name

Join Us Today!

Don't strum alone...
be a part of the largest online Christian music community. Browse thousands of guitar tabs and chat w/ musicians like yourself.


It's Free!

This tab has not yet been rated for accuracy.Sorry, but you must be logged in to rate this tab.
Click here to log-in, or you can click here to register.
(Registration is free)

All songs owned by corresponding publishing company. If you make copies of any song on this website, be sure to report your usage to CCLI.
Submitted by: scheller

Glo In The Dark (Part 2)
Delirious?
Album: Glo
C 2000 Curious? UK

Music by Martin Smith and Stuart Garrard

Transcribed by scheller  
This song was pretty tedious to tab out, but here it is in its entirety.
This tab shows the three main guitars playing in the song.
Powertab available here: 
http://www.christianguitar.org/forums/showthread.php?t=75732


 0:00   Main Riff
          Dm7                                    8x
|-----||--5-0-----------0-|-----------------0----||
|-----||o-----6-------6---|-----(6)-----------6-o||
|-----||--------5---5-----|---------5---4/5------||
|-----||--0-------0-------|-(0)-------0----------||
|-----||o-----------------|---------------------o||
|-----||------------------|----------------------||


 0:30 (Gtr I continues playing Main Riff)
  Gtr II
|-----------------|------------------|-----------------|------------------|
|-----------------|------------------|-----------------|------------------|
|-5/7-------------|------------------|-5/7-----------7-|------------------|
|-----------------|----5----7--------|-----------------|----5----7--------|
|-----------------|------------------|-----------------|------------------|
|-----------------|------------------|-----------------|------------------|
|
| Gtr III
|-----------------|------------------|-----------------|------------------|
|---------6---6-5-|------------------|---------6---6-5-|------------------|
|-------5---------|------------------|-------5---------|------------------|
|-----------------|------------------|-----------------|------------------|
|-----------------|------------------|-----------------|------------------|
|-----------------|------------------|-----------------|------------------|


|-----------------|------------------|-----------------|------------------|
|-----------------|------------------|-----------------|------------------|
|-5/7-------------|------------------|-----------------|------------------|
|-----------------|----5----7--------|-----------------|------------------|
|-----------------|------------------|-----------------|------------------|
|-----------------|------------------|-----------------|------------------|
|
|-----------------|------------------|---------------5-|------------------|
|---------6---6-5-|------------------|---------6---6---|------------------|
|-------5---------|------------------|-------5---------|------------------|
|-----------------|------------------|-----------------|------------------|
|-----------------|------------------|-----------------|------------------|
|-----------------|------------------|-----------------|------------------|


 0:44
|----------------|---------------|----------------|--------------|
|----------------|---------------|----------------|--------------|
|-5/7-7---7--5-7-|---------------|-5/7-7---7--5-7-|--------------|
|----------------|---5--7--------|----------------|-----5--7-----|
|-3/5-5---5--3-5-|---------------|-3/5-5---5--3-5-|--------------|
|----------------|---3--5--------|----------------|-----3--5-----|
|
|----------------|---------------|----------------|--------------|
|---------6--6-5-|---------------|---------6--6-5-|--------------|
|-------5--------|---------------|-------5--------|--------------|
|----------------|---------------|----------------|--------------|
|----------------|---------------|----------------|--------------|
|----------------|---------------|----------------|--------------|


|----------------|--------------|----------------|-----------------|
|----------------|--------------|----------------|-----------------|
|-5/7-7---7--5-7-|--------------|----------------|-----------------|
|----------------|---5--7--5-7--|-5/7-7/5-7--5-7-|-(7)\----/12\----|
|-3/5-5---5--3-5-|--------------|----------------|-----------------|
|----------------|---3--5--3-5--|-3/5-5/3-5--3-5-|-(5)\----/10\----|
|
|----------------|--------------|----------------|-----------------|
|---------6--6-5-|--------------|---------6--6-5-|-----------------|
|-------5--------|--------------|-------5--------|-----------------|
|----------------|--------------|----------------|-----------------|
|----------------|--------------|----------------|-----------------|
|----------------|--------------|----------------|-----------------|


|---------------|------------|--------------|--------|
|---------------|------------|--------------|--------|
|-7-------------|------------|--------------|--------|
|---------------|------------|--------------|--------|
|-5-------------|------------|--------------|--------|
|---------------|------------|--------------|--------|
|
|---------------|------------|--------------|--------|
|----6---6--6-5-|------------|---6---6--6-5-|--------|
|------5--------|------------|-----5--------|--------|
|---------------|------------|--------------|--------|
|---------------|------------|--------------|--------|
|---------------|------------|--------------|--------|


 1:06
|-----------------|-----------------------|-------------------------|
|-8---------------|-----------------------|-------------------------|
|--------10--10---|-----------------------|-------------------------|
|-----------------|------12-10-12---10-12-|------10-12---10-12---10-|
|-----------------|-----------------------|-------------------------|
|-----------------|-----------------------|-------------------------|
|                                                               
|-----------------|-----------------------|-----------------------5-|
|----6----6---6-5-|-----------------------|---------------6----6--6-|
|------5----------|-----------------------|------------5------------|
|-----------------|-----------------------|-------------------------|
|-----------------|-----------------------|-------------------------|
|-----------------|-----------------------|-------------------------|


|---------------------------13-12-10------------|
|---------------------10h13----------13-11-10---|
|---------------10h12---------------------------|
|-12------10h12---------------------------------|
|-----------------------------------------------|
|-----------------------------------------------|
|
|-----5-5--5-----------5-----5--------5---------|
|-----6-6--6-----------6-----6--------6---------|
|-----------------------------------------------|
|-----------------------------------------------|
|-----------------------------------------------|
|-----------------------------------------------|


|--------------------------|---------------------|
|--------------------------|---------------------|
|-10-----------------------|---------------------|
|----12p10-----------------|---------------------|
|--------------------------|---------------------|
|----------13-10\----------|-/8----10\-----------|
|
|--5--5-----x----5--5-5--5-|-----5--5--5-5-5-5-5-|
|--6--6-----x----6--6-6--6-|-----6--6--6-6-6-6-6-|
|--------------------------|---------------------|
|--------------------------|---------------------|
|--------------------------|---------------------|
|--------------------------|---------------------|


|----------------------|----------------------|
|----------------------|----------------------|
|----------------------|----------------------|
|----------------------|----------------------|
|----------------------|----------------------|
|----/10-10-10\--------|-/8----10\----8-10\---|
|
|-x-------5--5--5-5--5-|-----5--5--5--5--5--5-|
|-x-------6--6--6-6--6-|-----6--6--6--6--6--6-|
|-x--------------------|----------------------|
|----------------------|----------------------|
|----------------------|----------------------|
|----------------------|----------------------|


  
|---------------------|--------------------|
|---------------------|--------------------|
|---------------------|--------------------|
|---------------------|--------------------|
|---------------------|--------------------|
|----/10-8-10\--------|-/8----10\----------|
|
|-x------5--5--5-5--5-|-----5--5--5--5-5-5-|
|-x------6--6--6-6--6-|-----6--6--6--6-6-6-|
|-x-------------------|--------------------|
|---------------------|--------------------|
|---------------------|--------------------|
|---------------------|--------------------|


|------------------------|------------------------------------|
|------------------------|------------------------------------|
|------------------------|-----10-------10-12b14r-12-10-------|
|---------------------10-|-12-----10h12-----------------12-10-|
|-----8-10-8-10-10/12----|------------------------------------|
|------------------------|------------------------------------|
|
|-x-x----5-5--5--5-----5-|------5--5-----5-----5----5----5----|
|-x-x----6-6--6--6-----6-|------6--6-----6-----6----6----6----|
|------------------------|------------------------------------|
|------------------------|------------------------------------|
|------------------------|------------------------------------|
|------------------------|------------------------------------|


                                               pb = pre-bend
|-------10---------10-10-|-------10-------10----------|
|-------10---------10-10-|-------10-------10-10-------|
|-12b14------12b14-------|-12b14----12b14----12pb14---|
|------------------------|----------------------------|
|------------------------|----------------------------|
|------------------------|----------------------------|
|
|--5-----x-x--5-----x--x-|--5-----5--5-----5--5-----5-|
|--6-----x-x--6-----x--x-|--6-----6--6-----6--6-----6-|
|------------------------|----------------------------|
|------------------------|----------------------------|
|------------------------|----------------------------|
|------------------------|----------------------------|


|-x-x-----------------|-------------------------|
|-x-x-----------------|-------------------------|
|-x-x--10-10-10-10-10-|------10-10-10--10-10-10-|
|---------------------|-------------------------|
|---------------------|-------------------------|
|---------------------|-------------------------|
|
|-5-x---5--5--5--5--5-|-------5--5--5---5--5--5-|
|-6-x---6--6--6--6--6-|-------6--6--6---6--6--6-|
|-5-x-----------------|-------------------------|
|---------------------|-------------------------|
|---------------------|-------------------------|
|---------------------|-------------------------|


                                         hold bend
|--------------10-10-|-10--8-8-8-8/10-10/12b13===|
|--------------10----|---------------------------|
|--------------------|---------------------------|
|--------------------|---------------------------|
|--------------------|---------------------------|
|--------------------|---------------------------|
|
|------5-5-5-5--5--5-|-----5-5-5----5--5--5------|
|------6-6-6-6--6--6-|-----6-6-6----6--6--6------|
|--------------------|---------------------------|
|--------------------|---------------------------|
|--------------------|---------------------------|
|--------------------|---------------------------|

 hold bend--|
|======12=12r-12b13----------12b13==|=r(12)p10----12b13===r(12)p10----12b13==|
|-----------------------------------|----------13------------------13--------|
|-----------------------------------|----------------------------------------|
|-----------------------------------|----------------------------------------|
|-----------------------------------|----------------------------------------|
|-----------------------------------|----------------------------------------|
|
|-5--5--5--5---5-------5---5--5-----|-5--5------5--5----5----5------5--5-----|
|-6--6--6--6---6-------6---6--6-----|-6--6------6--6----6----6------6--6-----|
|-----------------------------------|----------------------------------------|
|-----------------------------------|----------------------------------------|
|-----------------------------------|----------------------------------------|
|-----------------------------------|----------------------------------------|

  
|=====r(12)p10----------------------|--------------------|
|--------------13p10----------------|--------------------|
|--------------------12p10----------|--------------------|
|--------------------------12-------|--------------------|
|-----------------------------------|--------------------|
|-----------------------------------|--------------------|
|
|---5----5------5-----5-----5-5-5-5-|---5--5-5-5-5-5-5-5-|
|---6----6------6-----6-----6-6-6-6-|---6--6-6-6-6-6-6-6-|
|-----------------------------------|--------------------|
|-----------------------------------|--------------------|
|-----------------------------------|--------------------|
|-----------------------------------|--------------------|


|-------------------|--------------------|
|-------------------|--------------------|
|-------------------|--------------------|
|-------------------|--------------------|
|-------------------|--------------------|
|-------------------|--------------------|
|
|---x---x-5-5-5-5-5-|------5-5-5--5-5-5--|
|---x---x-6-6-6-6-6-|------6-6-6--6-6-6--|
|---x---x-----------|--------------------|
|-------------------|--------------------|
|-------------------|--------------------|
|-------------------|--------------------|


 1:50
|---------------|---------------------|---------------|---------------------|
|-------6-6-6-5-|---------------------|-------6-6-6-5-|---------------------|
|---------------|-----5------(5)\-----|---------------|-----5------(5)\-----|
|---------------|---------------------|---------------|---------------------|
|---------------|---------------------|---------------|---------------------|
|---------------|---------------------|---------------|---------------------|
|
|-x--x--5-5-5-5-|-----5-5-5---5---5-5-|-x--x--5-5-5-5-|-----5-5-5---5---5-5-|
|-x--x--6-6-6-6-|-----6-6-6---6---6-6-|-x--x--6-6-6-6-|-----6-6-6---6---6-6-|
|-x--x----------|---------------------|-x--x----------|---------------------|
|---------------|---------------------|---------------|---------------------|
|---------------|---------------------|---------------|---------------------|
|---------------|---------------------|---------------|---------------------|


|-----------------|-------------------|--------/5-5-5---|-------------------|
|-5h6-----8-8-8-5-|-------------------|---------------5-|-------------------|
|-----------------|-----5-----(5)\----|-----------------|-----5-----(5)\----|
|-----7-----------|-------------------|-----------------|-------------------|
|-----------------|-------------------|-----------------|-------------------|
|-----------------|-------------------|-----------------|-------------------|
|
|-5-5-5-5-5-5-5-5-|--5--5-5-5--5--5-5-|-x--x-5--5-5-5-5-|-----5-5-5--5--5-5-|
|-6-6-6-6-6-6-6-6-|--6--6-6-6--6--6-6-|-x--x-6--6-6-6-6-|-----6-6-6--6--6-6-|
|-----------------|-------------------|-x--x------------|-------------------|
|-----------------|-------------------|-----------------|-------------------|
|-----------------|-------------------|-----------------|-------------------|
|-----------------|-------------------|-----------------|-------------------|

  
|--------/5-5-5---|---------------------|
|---------------5-|---------------------|
|-----------------|-----5------(5)\-----|
|-----------------|---------------------|
|-----------------|---------------------|
|-----------------|---------------------|
|
|-x--5-5--5-5-5-5-|-----5-5-5---5---5-5-|
|-x--6-6--6-6-6-6-|-----6-6-6---6---6-6-|
|-x---------------|---------------------|
|-----------------|---------------------|
|-----------------|---------------------|
|-----------------|---------------------|


|----------/5---5---5--(3)-|-(3)-------------------|
|---------/(6)-(6)-(6)--5--|-(5)----------(5)\-----|
|--------------------------|------5-------(5)\-----|
|--------------------------|-----------------------|
|--------------------------|-----------------------|
|--------------------------|-----------------------|
|
|-x-x-x-5---5---5---5---5--|------5--5-5---5---5-5-|
|-x-x-x-6---6---6---6---6--|------6--6-6---6---6-6-|
|-x---x--------------------|-----------------------|
|--------------------------|-----------------------|
|--------------------------|-----------------------|
|--------------------------|-----------------------|


 (In the next few sections, the notes in parenthesis
  above or below a normal note are optional.  I can't 
  tell for sure if they're played or not.) 
|----------/5---5---5--(3)-|-----------------------|
|---------/(6)-(6)-(6)--5--|-----(5)------(5)\-----|
|--------------------------|------5-------(5)\-----|
|--------------------------|-----------------------|
|--------------------------|-----------------------|
|--------------------------|-----------------------|
|
|-x-x-5-5---5---5---5---5--|------5--5-5---5---5-5-|
|-x-x-6-6---6---6---6---6--|------6--6-6---6---6-6-|
|-x------------------------|-----------------------|
|--------------------------|-----------------------|
|--------------------------|-----------------------|
|--------------------------|-----------------------|


|----------/5---5---5--(3)-|------------------------------|
|---------/(6)-(6)-(6)--5--|------(5)----------(5)\-------|
|--------------------------|-------5-----------(5)\-------|
|--------------------------|------------------------------|
|--------------------------|------------------------------|
|--------------------------|------------------------------|
|
|-x-x-x-5---5---5---5---5--|-----/10--10-10-10-10---10-10-|
|-x-x-x-6---6---6---6---6--|------------------------------|
|-x---x--------------------|------------------------------|
|--------------------------|------------------------------|
|--------------------------|------------------------------|
|--------------------------|------------------------------|


  
|---------/5---5---5--(3)-|-----------------------|
|--------/(6)-(6)-(6)--5--|-----(5)------(5)\-----|
|-------------------------|------5-------(5)\-----|
|-------------------------|-----------------------|
|-------------------------|-----------------------|
|-------------------------|-----------------------|
|
|-5---5----5---5---5---5--|------5--5-5---5---5-5-|
|-5h6-6----6---6---6---5--|------5--5-5---5---5-5-|
|-------------------------|-----------------------|
|-------------------------|-----------------------|
|-------------------------|-----------------------|
|-------------------------|-----------------------|


|------/(5)-(5)-(5)---|--------------------|
|-------/6---6---6--5-|--------------------|
|---------------------|-----5--------------|
|---------------------|----------------7-7-|
|---------------------|--------------------|
|---------------------|--------------------|
|
|----5---5---5---5--5-|-----5--5--5--5-5-5-|
|----6---6---6---6--5-|-----5--5--5--5-5-5-|
|---------------------|--------------------|
|---------------------|--------------------|
|---------------------|--------------------|
|---------------------|--------------------|


 2:19
|-----------------|-------------------|
|---------6-6-6-5-|-------------------|
|-5h7-------------|-----7---5-7-7-7-7-|
|-----------------|-------------------|
|-----------------|-------------------|
|-----------------|-------------------|
|
|-5---5-5-5-5-5-5-|-----5-5-5---5-5-5-|
|-6---6-6-6-6-6-5-|-----5-5-5---5-5-5-|
|-----------------|-------------------|
|-----------------|-------------------|
|-----------------|-------------------|
|-----------------|-------------------|


|-5---------------|--------------------------|
|-----------------|--------------------------|
|---7-7-5-7---5-7-|-------5--7----5-7------5-|
|-----------------|--------------------------|
|-----------------|--------------------------|
|-----------------|--------------------------|
|
|-x-5-x-5-5-5-5-5-|-----/10-10-10-----/10-10-|
|-x-6-x-6-6-6-6-5-|--------------------------|
|-----------------|--------------------------|
|-----------------|--------------------------|
|-----------------|--------------------------|
|-----------------|--------------------------|

  
|----------------|-------------------|-------------------|------------------|
|----------------|-------------------|-------6-6-6---5---|----------5-----5-|
|-7--5-7---5-7---|--5--7---5-7---5-7-|-(7)/9-------------|--------7-----7---|
|----------------|-------------------|-------------------|------------------|
|----------------|-------------------|-------------------|------------------|
|----------------|-------------------|-------------------|------------------|
|
|-5--5---5-5-5-5-|-----5-5-5---5-5-5-|---------5-5-5-5-5-|----5-5-5---5-5-5-|
|-6--6---6-6-6-5-|-----5-5-5---5-5-5-|---------6-6-6-6-5-|----5-5-5---5-5-5-|
|----------------|-------------------|-------------------|------------------|
|----------------|-------------------|-------------------|------------------|
|----------------|-------------------|-------------------|------------------|
|----------------|-------------------|-------------------|------------------|


  
|-----------------|-------------------|
|-5-6-5-6---6-6-6-|--6--6-6-6-6-6-6-6-|
|-----------------|-------------------|
|-----------------|-------------------|
|-----------------|-------------------|
|-----------------|-------------------|
|
|-5---5-5-5-5-5-5-|-----5-5-5---5-5-5-|
|-6---6-6-6-6-6-5-|-----5-5-5---5-5-5-|
|-----------------|-------------------|
|-----------------|-------------------|
|-----------------|-------------------|
|-----------------|-------------------|


|-----------------|--------------------------|
|-6-6-8-8-8-8-8-8-|--8----8--8--8-8-8---8--8-|
|-----------------|--------------------------|
|-----------------|--------------------------|
|-----------------|--------------------------|
|-----------------|--------------------------|
|
|-x-5-x-5-5-5-5-5-|-----/10-10-10-----/10-10-|
|-x-6-x-6-6-6-6-6-|--------------------------|
|-----------------|--------------------------|
|-----------------|--------------------------|
|-----------------|--------------------------|
|-----------------|--------------------------|


 2:41  
|-------------------------|--------------------------|
|-10-10-10-10-10-10-10-10-|-10--10-10-10-10-10-10-10-|
|-------------------------|--------------------------|
|-------------------------|--------------------------|
|-------------------------|--------------------------|
|-------------------------|--------------------------|
|
|--5-----5--5--5--5--5--5-|------5--5--5-----5--5--5-|
|--6-----6--6--6--6--6--5-|------5--5--5-----5--5--5-|
|-------------------------|--------------------------|
|-------------------------|--------------------------|
|-------------------------|--------------------------|
|-------------------------|--------------------------|


|-------------------------|--------------------------|
|-10s13-13-13-13-13-13-13-|-13--13-13-13-13-13-13-13-|
|-------------------------|--------------------------|
|-------------------------|--------------------------|
|-------------------------|--------------------------|
|-------------------------|--------------------------|
|
|--5--------5--5--5--5--5-|------5--5--5-----5--5--5-|
|--6--------6--6--6--6--5-|------5--5--5-----5--5--5-|
|-------------------------|--------------------------|
|-------------------------|--------------------------|
|-------------------------|--------------------------|
|-------------------------|--------------------------|

  
|-------------------------|-----------12-12-12-12-13-|
|-15-15-15-15-15-15-15-15-|-15--15-15----------------|
|-------------------------|--------------------------|
|-------------------------|--------------------------|
|-------------------------|--------------------------|
|-------------------------|--------------------------|
|
|--5-----5--5--5--5--5--5-|------5--5--5-----5--5--5-|
|--6-----6--6--6--6--6--5-|------5--5--5-----5--5--5-|
|-------------------------|--------------------------|
|-------------------------|--------------------------|
|-------------------------|--------------------------|
|-------------------------|--------------------------|


|-13-13-13-13-13-13-13-13-|-15---15-15-15-15-15-15-15-|
|-------------------------|---------------------------|
|-------------------------|---------------------------|
|-------------------------|---------------------------|
|-------------------------|---------------------------|
|-------------------------|---------------------------|
|
|--5--------5--5--5--5--5-|-----/10--x-10-10-10-10-10-|
|--6--------6--6--6--6--5-|---------------------------|
|-------------------------|---------------------------|
|-------------------------|---------------------------|
|-------------------------|---------------------------|
|-------------------------|---------------------------|

  
|-17-17-17-17-17-17-17-17-|-17-17-17-17-17-17-17-17/|
|-------------------------|-------------------------|
|-------------------------|-------------------------|
|-------------------------|-------------------------|
|-------------------------|-------------------------|
|-------------------------|-------------------------|
|
|-10-10-10-10-10-10-10-10-|-10-10-10-10-10-10-10-12-|
|-------------------------|-------------------------|
|-------------------------|-------------------------|
|-------------------------|-------------------------|
|-------------------------|-------------------------|
|-------------------------|-------------------------|


|-20-20-20-20-20-20-20-20-|-20-20-20-20-20-20-20-22-|
|-------------------------|-------------------------|
|-------------------------|-------------------------|
|-------------------------|-------------------------|
|-------------------------|-------------------------|
|-------------------------|-------------------------|
|
|-12-12-12-12-12-12-12-12-|-12-12-12-12-12-12-12-13-|
|-------------------------|-------------------------|
|-------------------------|-------------------------|
|-------------------------|-------------------------|
|-------------------------|-------------------------|
|-------------------------|-------------------------|

  
|-22-22-22-22-22-22-22-22-|-22-22-22-22-22-22-22-22-|
|-------------------------|-------------------------|
|-------------------------|-------------------------|
|-------------------------|-------------------------|
|-------------------------|-------------------------|
|-------------------------|-------------------------|
|
|-13-13-13-13-13-13-13-13-|-13-13-13-13-13-13-13-15-|
|-------------------------|-------------------------|
|-------------------------|-------------------------|
|-------------------------|-------------------------|
|-------------------------|-------------------------|
|-------------------------|-------------------------|


|-22-22-22-22-22-22-22-22-|-22-22-22-22-22-22-22-22-|
|-------------------------|-------------------------|
|-------------------------|-------------------------|
|-------------------------|-------------------------|
|-------------------------|-------------------------|
|-------------------------|-------------------------|
|
|-15-15-15-15-15-15-15-15-|-15-15-15-15-15-15-15-15-|
|-------------------------|-------------------------|
|-------------------------|-------------------------|
|-------------------------|-------------------------|
|-------------------------|-------------------------|
|-------------------------|-------------------------|

  
|-22-22-22-22-22-22-22-22-|-22-22-22-22-22-20-20-20-|
|-------------------------|-------------------------|
|-------------------------|-------------------------|
|-------------------------|-------------------------|
|-------------------------|-------------------------|
|-------------------------|-------------------------|
|
|-------------------------|-------------------------|
|--------6-----6-----5----|--6-----6-----6-----5----|
|--------5--5--5-----5----|-----5-----5--5-----5--5-|
|-------------------------|-------------------------|
|-------------------------|-------------------------|
|-------------------------|-------------------------|


|-20-22-22-22-22-22-22-22-|-22-22-22-22-22-20-20-20-|
|-------------------------|-------------------------|
|-------------------------|-------------------------|
|-------------------------|-------------------------|
|-------------------------|-------------------------|
|-------------------------|-------------------------|
|
|-------------------------|-------------------------|
|--6-----6-----6-----5----|--6-----6-----6-----5----|
|-----5-----5--5-----5----|-----5-----5--5-----5----|
|-------------------------|-------------------------|
|-------------------------|-------------------------|
|-------------------------|-------------------------|

  
|-20-22-22-22-22-22-22-22-|-22-22-x-22-22-22-x--|
|-------------------------|---------------------|
|-------------------------|---------------------|
|-------------------------|---------------------|
|-------------------------|---------------------|
|-------------------------|---------------------|
|
|-------------------------|---------------------|
|--6-----6-----6-----5----|--6----6-----6----5--|
|-----5-----5--5-----5----|-----5----5--5----5--|
|-------------------------|---------------------|
|-------------------------|---------------------|
|-------------------------|---------------------|


|----------------|-----------------|
|----------------|-----------------|
|----------------|-----------------|
|----------------|-----------------|
|----------------|-----------------|
|----------------|-----------------|
|
|----------------|-----------------|
|-6-6-6-6-5--6-6-|-6-6-6-6-6-6-6-6-|
|-5-5-5-5-5--5-5-|-5-5-5-5-5-5-5-5-|
|----------------|-----------------|
|----------------|-----------------|
|----------------|-----------------|


 3:24
|---------------|-----------------|-----------------|-----------------|
|-6-6-6-6-6--5--|-6-6-6-6-6-6-6-6-|-6-6-6-6-6-6-6-6-|-6-6-6-6-6-6-6-6-|
|-5-5-5-5-5--5--|-5-5-5-5-5-5-5-5-|-5-5-5-5-5-5-5-5-|-5-5-5-5-5-5-5-5-|
|---------------|-----------------|-----------------|-----------------|
|---------------|-----------------|-----------------|-----------------|
|---------------|-----------------|-----------------|-----------------|


|-----------------|-------------------|---------------|-----*|
|-6-6-6-6-6-6-6-6-|--6--6-6-6-6-6-6-6-|--6--6-6-6-----|-----*|
|-5-5-5-5-5-5-5-5-|--5--5-5-5-5-5-5-5-|--5--5-5-5-----|-----*|
|-----------------|-------------------|---------------|-----*|
|-----------------|-------------------|---------------|-----*|
|-6---------------|-------------------|---------------|-----*|


Generated using Power Tab Editor by Brad Larsen
http://power-tab.net

Comments about this tab

Delirious Ste - 2006-01-16

Wow great tab


Add a comment/correction

Complimentary Christian Ringtones
Dadamobile and CGR have teamed up to bring your favorite Christian artists right to your phone. Sign up today and get 10 complementary ringtones!
Tab Country
Did you know CGR has a sister site w/ country guitar tabs? Well we do! Its called Tab Country. It has a great archive with a lot of country tabs.
Rockin Tabs
Are you looking for a site that has rock guitar tabs? Then Rockintabs.com is the place for you. It is a budding site with many rock guitar tabs. Submit your tab today.
Tab Gallery
Tab Gallery has a compilation of christian, rock, and country tabs all in one place. Come visit us.