Guitar Tabs
song title    band name

Join Us Today!

Don't strum alone...
be a part of the largest online Christian music community. Browse thousands of guitar tabs and chat w/ musicians like yourself.


It's Free!

This tab has been rated a 3.25 out of 5 for accuracy. (4 votes)Sorry, but you must be logged in to rate this tab.
Click here to log-in, or you can click here to register.
(Registration is free)

All songs owned by corresponding publishing company. If you make copies of any song on this website, be sure to report your usage to CCLI.
Submitted by: blaine9

This tab has the riffs in it that the others don't.

Everybody Praise The Lord

(A,F#,G,G#)  Intro Riff


bass only in verses:  
G-----------------------------------------------------------------------------------------
D-----------------------------------------------------------------------------------------
A--------------3-----------------5--3-------------------3--------------------------
E---5--3--5-----3--5----5--3--5---------5----5--3--5------3--5--------------------

First ending is: G-------------------  second time:  G-----------------------
	         D-------------------	             D----------5-6-7------
	         A-----------5-6-7-	             A-----------------------
	         E--5-3-5----------	             E--5-3-5--------------


Verses are just A and then in one part D (bend it a little at part)
 and then back to A

Chorus:

A              G

D/F#         G                           A     B/A     C/A     D/A                      
 
A               F2

D/F#         G                           A     B/A     D/A      D/A


(A,F#,G,G#)  Intro Riff

Verse 2

A again then this little riff
e---------------------------------------------------------------------------------------------------------
B---------------------------------------------------------------------------------------------------------
G7h5---55h7-7b---5---7--5---------------------------------------------------------------
D---------------7-----------------------------------------------------------------------------
A---------------------------------------------------------------------------------------------------------
E---------------------------------------------------------------------------------------------------------


just a again then this riff
e------------8h10h8b-------------------------------------------------------------------------------
B--------10----------------------------------------------------------------------------------------------
G--------------------------------------------------------------------------------------------------------

D                                    D bend a lil
  
D5(#4)                            D ben a lil
  
A 

Chorus:
A              G

D/F#         G                           A     B/A     C/A     D/A                      

A               F2

D/F#         G                           A     B/A     D/A      D/A

Comments about this tab

kamikaze11202 - 2005-04-06

What is a C/A and a F2?


f0neman - 2006-04-27

Anybody got the guitar solo tabbed? Help!


LesPaul1988 - 2006-10-09

The solo riff starts with the first lead line on verse 2, then from there I just improvise man. The only way to get better is to make your own stuff up to a previous player.


LesPaul1988 - 2006-10-09

Wrong riff.

B----------/9-10h12p10-----

It starts with that, then a run back to C# on the A string, the I just improvise. Its fun man.


ttownguitarist - 2007-02-19

Great tab, I had a heck of a time finding it, but here are a few notes:
on the verses when it goes to the "D", the rhythem guitar is playing a D5 while the lead guitar is playing:
E-------------------------------------8
B-7-7-7-7--8-8-8-8--9-9-9-9--10-10-10-10
G-7-7-7-7--7-7-7-7--7-7-7-7--7--7--7--7

And on the instrumental the chords are: ( "/" denontes one measure)
F#m / / / F#m / / /
G / / / G / / / [2x]
A C# D D# E F F# G G# A
C# D D# E F F# G G#
G / / / G / / / /
A G# G F# F E [4X]
A / / /
Then straight into chorus


Add a comment/correction

Complimentary Christian Ringtones
Dadamobile and CGR have teamed up to bring your favorite Christian artists right to your phone. Sign up today and get 10 complementary ringtones!
Tab Country
Did you know CGR has a sister site w/ country guitar tabs? Well we do! Its called Tab Country. It has a great archive with a lot of country tabs.
Rockin Tabs
Are you looking for a site that has rock guitar tabs? Then Rockintabs.com is the place for you. It is a budding site with many rock guitar tabs. Submit your tab today.
Tab Gallery
Tab Gallery has a compilation of christian, rock, and country tabs all in one place. Come visit us.