Guitar Tabs
song title    band name

Join Us Today!

Don't strum alone...
be a part of the largest online Christian music community. Browse thousands of guitar tabs and chat w/ musicians like yourself.


It's Free!

This tab has been rated a 1.67 out of 5 for accuracy. (3 votes)Sorry, but you must be logged in to rate this tab.
Click here to log-in, or you can click here to register.
(Registration is free)

All songs owned by corresponding publishing company. If you make copies of any song on this website, be sure to report your usage to CCLI.
Submitted by: Michael Uchimur

Submitted by:Mikedude316
Title: Your Love is Extravagant

This is a modified version of the mandolin part
and is for GUITAR for those of you without a mandolin , the only differences 
are some rolling bass notes and a few b's. Also this arrangment can be moved
down a step for people who can't handle the song in it's current key.

CAPO ON 4th (noted realitive to capo)

Introduction:                             
e-7--9--10--9--7----------------------]          e------------]
B-----------------10--8--7--8--7------]          B---7--------] 
G-7--9--11--9--7------------------9---]PART A  2xG--9---9--7-7]---PART B
D-----------------11--9--7--9--7------]          D------------]
A---------------------------------10--]          A------------]
E-------------------------------------]          E------------]


Verse:
e-----------]            e--10--9--7--------------------]
B-----------]            B----------10--8--7--8--7------]
G--7----7--6]PART C      G--11--9--7----------------9---]PART D 2x(then PART B) 
D--9--9----7]            D----------11--9--7--9--7------]
A-----------]            A--------------------------10--]
E-----------]            E------------------------------]


  

(GO STRAIGHT INTO CHORUS)

Chorus:
e-------------------------------------------------------------------------]
B--------0----0----0-----1--------1----1----1----1-------1----1----1----0-]
G------0----0----0----0---------2----2----2----2-------2----2----2----2---]  
D----0-------0----0----0------3-------3----3----3----3-------3----3----3--]2x
A--2------------------------0----------------------3----------------------]
E-------------------------------------------------------------------------]

---------------]
--------0----0-]
------0---0----]
----0------0---]PART E
--2------------]
---------------]

Play PART A&B, then Verse 2 is the same as verse 1

AT CHOURUS play twice except play the first part 4x instead of 2x, and then
at the end of the fouth time play the whole thing.

Play PART A 4x then play PART C at

AND then song ends in SILENCE,  and that pretty much it.

HOPE YOU ENJOY
   ALL HIZ,
    MIKE

Comments about this tab

masterjon - 2005-05-12

How sure are you,Mike, that this is the correct tab? I messed around with it a little bit so i could play it at college group but i was having trouble making it fit. Could you either send me some correction or send me some sound bite of a toned down chorus (with only the mandolin being played)? My email is ace_ventura_guy@yahoo.com .


Add a comment/correction

Complimentary Christian Ringtones
Dadamobile and CGR have teamed up to bring your favorite Christian artists right to your phone. Sign up today and get 10 complementary ringtones!
Tab Country
Did you know CGR has a sister site w/ country guitar tabs? Well we do! Its called Tab Country. It has a great archive with a lot of country tabs.
Rockin Tabs
Are you looking for a site that has rock guitar tabs? Then Rockintabs.com is the place for you. It is a budding site with many rock guitar tabs. Submit your tab today.
Tab Gallery
Tab Gallery has a compilation of christian, rock, and country tabs all in one place. Come visit us.