Guitar Tabs
song title    band name

Join Us Today!

Don't strum alone...
be a part of the largest online Christian music community. Browse thousands of guitar tabs and chat w/ musicians like yourself.


It's Free!

This tab has been rated a 4.67 out of 5 for accuracy. (12 votes)Sorry, but you must be logged in to rate this tab.
Click here to log-in, or you can click here to register.
(Registration is free)

All songs owned by corresponding publishing company. If you make copies of any song on this website, be sure to report your usage to CCLI.
Submitted by: IncuThrice07

-------------------------------------------------------------------------------
                BLESSED BE YOUR NAME - Tree63
--------------------------------------------------------------------------------

By:  Gary(garyhale@spu.edu)

TUNE DOWN 1/2 STEP!!!

~   - let ring out
/ \ - slide
>   - strumming not defined


GUITAR 1'S PARTS:
-----------------
Chords:
    D   A   Bmin   G   D5   A5   B5   G5
Eb|-2---0-----2----3-----------------------|
Bb|-3---2-----3----3-----------------------|
Gb|-2---2-----4----0---7---------4---------|
Db|-0---2-----4----0---7----7----4----5----|
Ab|-----0-----2----2---5----7----2----5----|
Eb|----------------3--------5---------3----|

Intro:  D - A - Bmin - G

Verse:
D         A                   Bmin            G
D         A                   G
D         A                   Bmin            G
D         A                   G

Pre Chorus:
D                A               Bmin           G
D                A               Bmin           G

Chorus:
D5            A5
B5   G5
D5            A5
B5   G5  

Repeat Verse

Repeat Pre Chorus

Repeat Chorus


Post Chorus:
    D5             A5
    B5             G5
    D5             A5
    B5             G5

Repeat 1st Verse

Repeat Chorus (2x)

Repeat Post Chorus

End on:
eb|------|
Bb|------|
Gb|--7~--|
Db|--7~--|
Ab|--5~--|
Eb|--5~--|

GUITAR 2'S PARTS:
-----------------
Intro:
eb|-2~--0~----0--2~----2--------------|
Bb|---------3--------3--------3-------|
Gb|-----------------------4~----4-----|
Db|-0~--------------------------------|
Ab|-----0~-------2~-------------------|
Eb|-----------------------3~----------|

Verse:
Eb|-----2---2------0---0-------2---2------3---------2---2--------------------|
Bb|-------3----------3---3-------3---3------3---------3---3------7~~~\-------|
Gb|-------------------------------------------4----------------6---6---------|
Db|-0~------------------------------------------0~---------------------------|
Ab|------------0~----------2~------------------------------------------------|
Eb|------------------------------------3~-------------------5~---------------|

Verse Cont'd:
Eb|-----------------------2---2------0---0--------2---2----------------------|
Bb|------5---5---0----------3----------3---3--------3---3------3---0---------|
Gb|----4---4---4---4-----------------------------------------4---4-----------|
Db|-------------------0~-----------------------------------------------------|
Ab|------------------------------0~-----------2~-----------------------------|
Eb|-3~----------------------------------------------------3~-----------------|

Verse Cont'd:
Eb|-----2---2------0---0-----------------------------------------------------|
Bb|-------3----------3-----0---0---0-----------------------------------------|
Gb|--------------------------2-------2~--------------------------------------|
Db|-0~-------------------5-------5-------------------------------------------|
Ab|------------0~------------------------------------------------------------|
Eb|--------------------------------------------------------------------------|

Pre Chorus:  (2x, pick single notes randomly, hard to hear exact rhythm)
Eb|-0>---0>---0>---0>--------------------------------------------------|
Bb|-3>---3>---3>---3>--------------------------------------------------|
Gb|-2>---2>---4>---0>--------------------------------------------------|
Db|-0>---2>---4>---0>--------------------------------------------------|
Ab|------0>---2>---2>--------------------------------------------------|
Eb|----------------3>--------------------------------------------------|

Chorus:  (2x)
Eb|-0>---0>---0>---3>----|
Bb|-3>---3>---3>---3>----|
Gb|-2>---2>---4>---0>----|
Db|-0>---2>---4>---0>----|
Ab|------0>---2>---2>----|
Eb|----------------3>----|

Repeat Verse:  (Come in on 2nd time around)

Repeat Pre Chorus

Repeat Chorus

Post Chorus:  "You give and take away..."  (Play same as Guitar 1)

Repeat 1st Verse

Chorus:  (2x)  (Only this guitar is playing)
Eb|----10----10----10-12-----------------------------------------------------|
Bb|/10----10----10-------10~-------------------------------------------------|
Gb|--------------------------------------------------------------------------|
Db|--------------------------------------------------------------------------|
Ab|--------------------------------------------------------------------------|
Eb|--------------------------------------------------------------------------|

Chorus Cont'd:
Eb|----10----10----12-------10----10----10-----------------------------------|
Bb|-10----10----10----10-10----10----10----10-10-10-10-10--------------------|
Gb|----------------------------------------12-12-12-12-12--------------------|
Db|--------------------------------------------------------------------------|
Ab|--------------------------------------------------------------------------|
Eb|--------------------------------------------------------------------------|

Chorus Cont'd:  (4x, entire band comes in)
Eb|--------------------------------------------------------------------------|
Bb|-10-10-10-10-10-10-10-10-10-10-10-10-10-10-10-10--------------------------|
Gb|-11-11-11-11-11-11-11-11-12-12-12-12-12-12-12-12--------------------------|
Db|--------------------------------------------------------------------------|
Ab|--------------------------------------------------------------------------|
Eb|--------------------------------------------------------------------------|

Post Chorus:  "You give and take away..."  (4x)
Eb|--------------------------------------------------------------------------|
Bb|-10-10-10-10-10-10-10-10-10-10-10-10-10-10-10-10--------------------------|
Gb|-11-11-11-11-11-11-11-11-12-12-12-12-12-12-12-12--------------------------|
Db|--------------------------------------------------------------------------|
Ab|--------------------------------------------------------------------------|
Eb|--------------------------------------------------------------------------|

End on:
Eb|--------|
Bb|--------|
Gb|--11~---|
Db|---x----|
Ab|---9~---|
Eb|--------|

I know the song is in C# but I thought it would be easier to understand if I
used the standard chords.  E-mail me any questions you have.
(garyhale@spu.edu)
http://www.geocities.com/ggtabs07
===============================================================================

Comments about this tab

bufered - 2005-03-20

the chord progression is A,E,F#m,D A,E,D.


Add a comment/correction

Complimentary Christian Ringtones
Dadamobile and CGR have teamed up to bring your favorite Christian artists right to your phone. Sign up today and get 10 complementary ringtones!
Tab Country
Did you know CGR has a sister site w/ country guitar tabs? Well we do! Its called Tab Country. It has a great archive with a lot of country tabs.
Rockin Tabs
Are you looking for a site that has rock guitar tabs? Then Rockintabs.com is the place for you. It is a budding site with many rock guitar tabs. Submit your tab today.
Tab Gallery
Tab Gallery has a compilation of christian, rock, and country tabs all in one place. Come visit us.