Guitar Tabs
song title    band name

Join Us Today!

Don't strum alone...
be a part of the largest online Christian music community. Browse thousands of guitar tabs and chat w/ musicians like yourself.


It's Free!

This tab has been rated a 4.50 out of 5 for accuracy. (28 votes)Sorry, but you must be logged in to rate this tab.
Click here to log-in, or you can click here to register.
(Registration is free)

All songs owned by corresponding publishing company. If you make copies of any song on this website, be sure to report your usage to CCLI.
Submitted by: Highrock163

Hey, I'm Alex and I've been playing for quite a bit so trust me, it's right.
I saw that there wasn't a tab for this song so I learned it and posted it.
Live for Jesus!!!

Pillar - Frontline

Dropped C    (Tune 1 whole step down from standard, then drop c it)

 Intro (1x)

 -----------------------------------------------------------------------
 -----------------------------------------------------------------------
 -----------------------------------------------------------------------
 ---5-5--8--8--7--7-----5-5-5-5--8--8--7--7-----8-8--10--10--8--8------
 ---5-5--5--5--5--5-----5-5-5-5--5--5--5--5-----8-8---8---8--8--8------
 ---5-5--5--5--5--5-----5-5-5-5--5--5--5--5-----8-8---8---8--8--8------
    x x                 x x x x                 x x

------------------------------------
------------------------------------
------------------------------------
---0-0-0-0---8--8--5--5-------------
---0-0-0-0---0--0--0--0-------------
---0-0-0-0---0--0--0--0-------------
   x x x x

 Verse

 -----------------------------------------------------------------------
 -----------------------------------------------------------------------
 -----------------------------------------------------------------------
 ---5-5--8--8--7--7-----5-5-5-5--8--8--7--7-----8-8--10--10--8--8------
 ---5-5--5--5--5--5-----5-5-5-5--5--5--5--5-----8-8---8---8--8--8------
 ---5-5--5--5--5--5-----5-5-5-5--5--5--5--5-----8-8---8---8--8--8------
    x x                 x x x x                 x x

------------------------------------
------------------------------------
------------------------------------
---0-0-0-0---8--8--5--5-------------
---0-0-0-0---0--0--0--0-------------
---0-0-0-0---0--0--0--0-------------.....play this twice but the second time, it
   x x x x                               will end like this....

------------------------------------
------------------------------------
------------------------------------
---0-0-0-0---8--8--5--5--7-7h8p7---
---0-0-0-0---0--0--0--0-------------
---0-0-0-0---0--0--0--0-------------
   x x x x
then...

---------------------------------------------------------------
---------------------------------------------------------------
---------------------------------------------------------------
--5-5--8--8--7--7--5--7---7h8------5-5--8--8--7--7--5--7---7h8-
--5-5--5--5--5--5--5--5---5--------5-5--5--5--5--5--5--5---5---
--5-5--5--5--5--5--5--5---5--------5-5--5--5--5--5--5--5---5---
  x x  x  x  x  x  x  x   x        x x  x  x  x  x  x  x   x

-------------------------------------------------------------
-------------------------------------------------------------
-------------------------------------------------------------
--8--8--10-10-8--8--10-8--8h10---0--0--8--8--5--5--8--5--7h8-
--8--8--8--8--8--8--8--8--8------0--0--0--0--0--0--0--0--0---
--8--8--8--8--8--8--8--8--8------0--0--0--0--0--0--0--0--0---
  x  x  x  x  x  x  x  x  x      x  x  x  x  x  x  x  x  x

 Chorus

--------------------------------------------------------------------
--------------------------------------------------------------------
--------------------------------------------------------------------
--3h5-5-5-5-5----3h5-5-5-5-5--3h5--5-5---8--8-8-8-8--3--3-3-3-3s10--
--3h5-5-5-5-5----3h5-5-5-5-5--3h5--5-5---8--8-8-8-8--3--3-3-3-3s10--
--3h5-5-5-5-5----3h5-5-5-5-5--3h5--5-5---8--8-8-8-8--3--3-3-3-3s10--

--------------------------------------------------------------------
--------------------------------------------------------------------
--------------------------------------------------------------------
--3h5-5-5-5-5----3h5-5-5-5-5--3h5--5-5---8--8-8-8---0---0---3---3h5-
--3h5-5-5-5-5----3h5-5-5-5-5--3h5--5-5---8--8-8-8---0---0---3---3h5-
--3h5-5-5-5-5----3h5-5-5-5-5--3h5--5-5---8--8-8-8---0---0---3---3h5-
                                                    x   x   x

I'm not going to do the solo because I don't feel like it...I'm sorry
but this is VERY time consuming!  So, I'll do perhaps the BEST part of the
song...

-----------------------------------------------------------------------
-----------------------------------------------------------------------
-----------------------------------------------------------------------
---5--5--5-5---5--5--5-5-----------------------------------------------
---5--5--5-5---5--5--5-5-------------------------5--------------3------
---5--5--5-5---5--5--5-5---19s5-----5--5--3--3---------1--1---1----3---

There you go!!!  Contratulations!  You now know how to play fontline, by Pillar,
which IS copyrighted, by the way.  Anyway, I just wanted to give back to the 
guitar world out there that helped me to learn to play in the first place.
ROCK ON!!!!
                     P.S.  Jesus Rocks!!!!!
E-mail @ Highrock163@yahoo.com

Comments about this tab

relient217kpax - 2004-08-03

umm could you do the mellow solo part sometime? thatd be cool...otherwise, great tab


Shinobi83 - 2004-09-09

um.... how do u drop c tune?
ZAC


F1le Khasper - 2004-09-14

TO tune in drop C you must turn you strings starting from Low to high C-G-C-F-A-D this is like Drop D but, with all the strings tuned down 2 more steps. You can also play this song drop b with all the notes 1 step up. I normally keep mine at drop B. Have fun :)


dandesmond - 2004-10-31

Awesome tab man


camofreak1000 - 2005-03-09

is it just me or does this part sound odd when u play it?

------------------------------------
------------------------------------
------------------------------------
---0-0-0-0---8--8--5--5-------------
---0-0-0-0---0--0--0--0-------------
---0-0-0-0---0--0--0--0-------------
to me it sounds like it should be a repeat of:

-------------------
-------------------
-------------------
-8-8--10--10--8--8-
-8-8---8---8--8--8-
-8-8---8---8--8--8- but maybe i'm wrong i really dont kno my ear just tells me differently


GuitarBeemer - 2005-03-11

no dude, the top two strings are both zero fretted, but i think they might use two strings on the eight fret or something, i thing the first string is 0, second is 0, third is 8, and fourth is 8 or 5. anywayz, that's usually how i play it, it sounds more like it. anywayz, great tab man. you're good alex.


Timberwolf - 2005-03-17

Intro
------------------
------------------
------------------
---8-8-7-7-etc.---
---5-5-5-5--------
55----------------
==


Anthony Ponce - 2005-03-17

great tab!!! i have been playing for a while, but a don not know how to drop tune.Could u include that sumtime? Pillar roks!!!
Jesus is my battle cry!!!


swimmer009 - 2005-03-26

i have the book now most of its ok not all thoguh still good tab


CRloveSkillet13 - 2005-05-24

Sweet tab!


christ 4 real - 2005-05-31

thight tab.
the
------------------------------------
------------------------------------
------------------------------------
---0-0-0-0---8--8--5--5--7-7h8p7---
---0-0-0-0---0--0--0--0-------------
---0-0-0-0---0--0--0--0-------------
part does look weird though.
im with ya! JESUS DOES ROCK!!!!!


pillar dude - 2005-06-17

hey guys i just registered. i love the tb i just think there are a few mistakes. i would love to post my version of the frontline song but how do i?
nice tab though


Dark Tofu - 2005-06-28

Pillar dude all you need to do
is go to the homepage and on the
list where they have the
Guitar tabs Bass tabs Praise tabs
Under that you click submit a tab and
you'll get the rest


pillar dude - 2005-06-28

hey thanks man i will past it right away!


y-fyre - 2005-07-05

Um..i haven't been playing guitar for too long but as i kno, x means mute rite? Then do i mute all those strings? Completely? Then the whole song is basically muted. Sumone help me out here, pls..


Dark Tofu - 2005-07-08

During this song when he has the x's under the tab that means palm mute only for that note or chord


y-fyre - 2005-07-24

Um..that's alot of mute..like during the middle part, most of the song is muted...hm..interesting, but thx for clearing that up for me..


jesusfrk5:16 - 2005-10-09

dude, nice tab, just trying to learn a few pillar songs. Rock on and live
for Jesus!!!!!!!


Ibanezdude - 2005-10-27

Hey, does anybody know the breakdown in this song.


gitarmniac07 - 2006-02-19

Is it me, or does that one part at the end of the intro go:
e-------------
B--------------
G------------
D-0-0-0-0--10-10-7-7
A-0-0-0-0--0--0--0-0
E-0-0-0-0--0--0--0-0
x x x x
Let me know at jkjenkins@aol.com


Dani_Boy - 2006-04-19

It's not only you.

C|---0-0-0-0---8--8--5--5-------------|
G|---0-0-0-0---0--0--0--0-------------|
C|---0-0-0-0---0--0--0--0-------------|

is pretty off. You got the right notes in your correction, but I think the rythm for the intro/verse is like this:

F|----------------|
C|-------10107-7--|
G|---00000-0-0-0--|
C|---00000-0-0-0--|


crazyheadbanger - 2006-04-26

i think the verse should go...

X=palm mute

C--5555--8877--5555--8877--8888--1088--0000--1088
G--5555--5555--5555--5555--8888--8888--0000--8888
C--5555--5555--5555--5555--8888--8888--0000--8888
X X X X X X X X X X X X X X X X X X X X X X X X

then u just repeat that. that sounds right to me. i dont know about that other stuff u guys put that doesnt sound right 2 me. so yeah there is my version hopefully u guys think thats right cause that sounds right 2 me. well c ya later guys!

ROCK ON!!!
guitar player,
victor


crazyheadbanger - 2006-04-26

sry guys that last post i had said...

C--5555--8877--5555--8877--8888--1088--0000--1088
G--5555--5555--5555--5555--8888--8888--0000--8888
C--5555--5555--5555--5555--8888--8888--0000--8888
X X X X X X X X X X X X X X X X X X X X X X X X

i meant 2 put...

C--5555--8877--5555--8877--88--1088--0000--1088
G--5555--5555--5555--5555--88--8888--0000--8888
C--5555--5555--5555--5555--88--8888--0000--8888
X X X X X X X X X X X X X X X X X X X X X X X X

sry about that.


jmgtrmusik - 2006-06-26

the little part during the verse that is picked goes as such

d---------------------------
a---------------------------
f---------------------------
c---10---10---8---8---7h8p7-
g---8----8----8---8--------8
c---8----8----8---8---------


LemonySnicket - 2006-07-07

I'M CONFUZZLED!


rawk4god715 - 2006-07-11

umm.... im new to this whole drop tunin thing. how do u drop c tune? i can't figure it out. can someone help me plz? tnx.

-rawk4god715


|)rink)v(tn|)ew - 2006-08-31

K...i was at the Pillar show..i was waiting for them to play frontline(they always play it as a closer) i was determined to him play this intro to see how he does it...it looks like he does this for the part in question...

c---xx10108-8--xxxx8-8-------
g---xx8-8-8-8--xxxxx-x-1010--
c---xx8-8-8-8--xxxx0-0-0-0---

this is my opinion
jstel


|)rink)v(tn|)ew - 2006-08-31

whoos, gees
c---xx10108-8--xxxx1010------
g---xx8-8-8-8--xxxxx-x-1212--
c---xx8-8-8-8--xxxx0-0-0-0---

sorry about that.
jstel


|)rink)v(tn|)ew - 2006-08-31

hey -rawk4god715...

drop c tuning is this..

instead of - ebgdad
(small to big)123456

tune to this - dafcgc
123456

just use a piano or if you have a chromatic tuner, use that


.:RoCk4hIm:. - 2007-03-02

dude ur tab rocks hard! its like perfect...i do have to agree w/ most of u that

C|---0-0-0-0---8--8--5--5-------------|
G|---0-0-0-0---0--0--0--0-------------|
C|---0-0-0-0---0--0--0--0-------------|
does sound a little weird

i THINK this might work tho...

C|---0-0-0-0--10-10--7--7-------------|
G|---0-0-0-0---0--0--0--0-------------|
C|---0-0-0-0---0--0--0--0-------------|

yeh...that does sound pretty good...well u guys tell me wut u think, and remember, ROCK 4 HIM!


Firefighter - 2007-03-19

Hiyas! This is my attempt, I just heard and learned the song last night, and I'm still playing with finding the distortion level, but try this out:


-----------------------------------------------------------------------
-----------------------------------------------------------------------
-----------------------------------------------------------------------
---5-5--8--8--7--7-----5-5-5-5--8--8--7--7-----8-8--10--10--8--8------
---5-5--5--5--5--5-----5-5-5-5--5--5--5--5-----8-8---8---8--8--8------
---5-5--5--5--5--5-----5-5-5-5--5--5--5--5-----8-8---8---8--8--8------
x x x x x x x x

------------------------------------
------------------------------------
------------------------------------
---0-0-0-0---10-10--7--7-------------
---0-0-0-0---8--8---5--5-------------
---0-0-0-0---0--0---0--0-------------
x x x x

Lemme know if it works for you, God Bless, and rock on!


Firefighter - 2007-03-19

Hmmm, the muted strums were in the right place when submitted, lol. Oh, well...

God Bless!


Add a comment/correction

Complimentary Christian Ringtones
Dadamobile and CGR have teamed up to bring your favorite Christian artists right to your phone. Sign up today and get 10 complementary ringtones!
Tab Country
Did you know CGR has a sister site w/ country guitar tabs? Well we do! Its called Tab Country. It has a great archive with a lot of country tabs.
Rockin Tabs
Are you looking for a site that has rock guitar tabs? Then Rockintabs.com is the place for you. It is a budding site with many rock guitar tabs. Submit your tab today.
Tab Gallery
Tab Gallery has a compilation of christian, rock, and country tabs all in one place. Come visit us.